» » »

Destine, Stars Tabs (ver.2)

Artists:  A B C D E F G H I J K L M N O P Q R S T U V W X Y Z # 

Stars Tabs (ver.2)

Destine Tabs
 Rating:
4/5 (4 votes)
Stars lessons Tabs too difficult? Try these video lessons and learn fast
1
                Capo 5 is required for playing this song!

intro & verse
|--7-7--9-9--11--12-12-12----7-7--9-9--11-11--12--12--|
|--5-5--5-5--5---5--5--5-----5-5--5-5--5--5---5---5---|
|--8-8--9-9--11--13-13-13----8-8--9-9--11-11--13--13--|
|-----------------------------------------------------|
|-----------------------------------------------------|
|-----------------------------------------------------|

As you can see the intro and the verse are the same.


prechorus
|------------------------------------|
|------------------------------------|
|------9---9-9---9-----9-----888888--|
|------9---9-9---9-----9-----999999--|
|------7---7-7---7-----7-------------|
|--5-5---5-----5---5-5---5-5-777777--|

You have to play this without breaks.


chorus & bridge
|--------------------------------------|
|--------------------------------------|
|--88888888-99999999-9999999999999999--|
|--99999999-99999999-9999999999999999--|
|--------------------7777777777777777--|
|--77777777-99999999-5555555555555555--|


        
            
Submit corrections

comments powered by Disqus
↑ Back to top | Destine Tabs for Stars. Lyrics for acoustic guitar and electric guitar. 1 Tablatures and chords are parodies/interpretations of the original songs. You may use it for private study, scholarship, research or language learning purposes only