» » »

Destine, Stars Tabs (ver.1)

Artists:  A B C D E F G H I J K L M N O P Q R S T U V W X Y Z # 

Stars Tabs (ver.1)

Destine Tabs
Rating:
5/5 (1 vote)
Stars lessons Tabs too difficult? Try these video lessons and learn fast
                Hey guys
I didn't tab this myself but i took it from atab and put it in the wright order. Easyer to read :)

Hope you have fun.

It's standard tuning.






intro
|--7-7-9-9---11--12---12-12---7-7-9-9--11-11--12--12--|
|--5-5-5-5---12--12---12-12---5-5-5-5--12-12--12--12--|
|-----------------------------------------------------|
|-----------------------------------------------------|
|-----------------------------------------------------|
|-----------------------------------------------------| 1x


verse
|--7-7-9-9--9/11-12--12--7-7-9-9-9/11-11-12--7-7-9-9--9/11-12--12--|
|--5-5-5-5--5/12-12--12--5-5-5-5-5/12-12-12--5-5-5-5--5/12-12--12--|
|------------------------------------------------------------------|
|------------------------------------------------------------------|
|------------------------------------------------------------------|
|------------------------------------------------------------------|1x


prechorus
|------------------------------------|
|------5---5-5---5---5---5---555555--|
|------4---4-4---4---4---4---444444--|
|------2---2-2---2---2---2---222222--|
|--0-0-0-0-0-0-0-0-0-0-0-0-0-000000--|
|------------------------------------|1x


verse
|--7-7-9-9--9/11-12--12--7-7-9-9-9/11-11-12--7-7-9-9--9/11-12--12--|
|--5-5-5-5--5/12-12--12--5-5-5-5-5/12-12-12--5-5-5-5--5/12-12--12--|
|------------------------------------------------------------------|
|------------------------------------------------------------------|
|------------------------------------------------------------------|
|------------------------------------------------------------------|1x


prechorus
|------------------------------------|
|------5---5-5---5---5---5---555555--|
|------4---4-4---4---4---4---444444--|
|------2---2-2---2---2---2---222222--|
|--0-0-0-0-0-0-0-0-0-0-0-0-0-000000--|
|------------------------------------|1x


chorus
|--------------------------------------|
|--------------------------------------|
|--44444444-66666666-------------------|
|--44444444-66666666-7777777777777777--|
|--22222222-44444444-7777777777777777--|
|--------------------5555555555555555--|2x


bridge
|--------------------------------------|
|--------------------------------------|
|--44444444-66666666-------------------|
|--xxxxxxxx-xxxxxxxx-5555555555555555--|
|--22222222-44444444-xxxxxxxxxxxxxxxx--|
|--------------------7777777767777777--|2x


verse
|--7-7-9-9--9/11-12--12--7-7-9-9-9/11-11-12--7-7-9-9--9/11-12--12--|
|--5-5-5-5--5/12-12--12--5-5-5-5-5/12-12-12--5-5-5-5--5/12-12--12--|
|------------------------------------------------------------------|
|------------------------------------------------------------------|
|------------------------------------------------------------------|
|------------------------------------------------------------------|1x


prechorus
|------------------------------------|
|------5---5-5---5---5---5---555555--|
|------4---4-4---4---4---4---444444--|
|------2---2-2---2---2---2---222222--|
|--0-0-0-0-0-0-0-0-0-0-0-0-0-000000--|
|------------------------------------|1x



chorus
|--------------------------------------|
|--------------------------------------|
|--44444444-66666666-------------------|
|--44444444-66666666-7777777777777777--|
|--22222222-44444444-7777777777777777--|
|--------------------5555555555555555--|4x


Outro (Same as Intro)
|--7-7-9-9---11--12---12-12---7-7-9-9--11-11--12--12--|
|--5-5-5-5---12--12---12-12---5-5-5-5--12-12--12--12--|
|-----------------------------------------------------|
|-----------------------------------------------------|
|-----------------------------------------------------|
|-----------------------------------------------------| 1x
            

comments powered by Disqus
↑ Back to top | Destine Tabs for Stars. Lyrics for acoustic guitar and electric guitar. Tablatures and chords are parodies/interpretations of the original songs. You may use it for private study, scholarship, research or language learning purposes only