» » »

Layla Tabs (ver.3)

Artists:  A B C D E F G H I J K L M N O P Q R S T U V W X Y Z # 

Layla Tabs (ver.3)

Derek And The Dominos
Rating:
4/5 (8 votes)

Hard to play? Try these video lessons and learn fast.
                Tuning: Standard

Intro:

Guitar1
|------------------------------|
|------------------------------|
|------------------------------|
|--------0h3p0-------0---------|
|---0h3-----------3------------|
|------------------------------|

Guitar2:

|---------------------------------|
|---------------------------------|
|---3--3--3----5--5--5---7--7--7--|
|---3--3--3----5--5--5---7--7--7--|
|---1--0--1----3--0--3---5--0--5--|
|---------------------------------|


Guitar1:

E|----------10h13p10------10--|
B|--10h13-------------13------|

after that:

1st and 3th time:

E|--15--13--12------10--|
B|--------------13------|

Every 2nd and 4th time:

E|--15h17--15--12------10--|
B|-----------------13------|

Guitar2 in those two parts:

G|---5--5--5---3--3--3---7--7--7--|
D|---5--5--5---3--3--3---7--7--7--|
A|---3--0--3---1--0--1---5--0--5--|
            
Hard to play? Try these video lessons and learn fast. | Correct




comments powered by Disqus
↑ Back to top | Tablatures and chords are parodies/interpretations of the original songs. You may use it for private study, scholarship, research or language learning purposes only