» » »

Derek And The Dominos, Bell Bottom Blues Tabs (ver.1)

Artists:  A B C D E F G H I J K L M N O P Q R S T U V W X Y Z # 

Bell Bottom Blues Tabs (ver.1)

Derek And The Dominos Tabs
 Rating:
4/5 (4 votes)
Bell Bottom Blues lessons Tabs too difficult? Try these video lessons and learn fast
                ok this is bell bottom blues by derek and the dominos off the album
layla and other assorted love songs. this is the true version of it,
dont be fooled by other versions out there. have fun with this. -andy


  C     C            E         Am        G/C        F
|-----|-------------|---------|---------|---------|----------|
|-----|-------1-----|---------|---------|---------|----------|
|-----|-----0---0---|-----1---|-----2---|---------|----------| 
|-----|-0-2-------2-|---2---2-|---2---2-|-----2---|-----3----|
|-2-3-|-------------|-2-------|-0-------|---3---3-|---3---3--|
|-----|-------------|---------|---------|-3-------|-1--------|

            (intro riff)
 G          F         C      G  
|---------|--13-------------------|
|---------|-----13-11-----13------|
|-----4---|-----------12^----12^--| 
|---5---5-|-----------------------|
|-5-------|-----------------------|
|---------|-----------------------|

Verse: (play chords as in intro)

C                     E       Am
Bell bottom blues you made me cry
G/C                   F       G     F  C  G 
I don’t want to lose this feelin’ 
C                     E       Am
If I could choose a place to die
G/C                  F      G
It would be in your arms


Chorus (strum):

A                  E               F#m            D  E
Do you wana see me crawl across the floor to you
A                      E          F#m       
Do you want to hear me beg you to take me back
D     E
I bet you do 
        A            Amaj7   A7
Because I don’t wana fade away
D              E
Give me one more day please
A            Amaj7  A7
I don’t wana fade away
D             E            F C G (intro riff) 
In your heart I wana stay


Verse:
Its all wrong but its all right
The way that you treat me baby
Once I was strong but I lost the fight
You won’t find a better loser

Chorus


Solo:
|--------------------15^(17)-15------------------15^-15------------|
|-12-13—15^(17)---13------------15^-15-13~~~--13--------15^-15-13--|
|------------------------------------------------------------------|
|------------------------------------------------------------------|
|------------------------------------------------------------------|
|------------------------------------------------------------------|

|----------------------------------------------------|
|----------------------------------------------------|
|-12h14p12-------------------------------------------| 
|----------14\12-10-------12^(14)-10----10-12~~~~----|
|-------------------12-10------------12--------------|
|----------------------------------------------------|

|--------------------------------------------15^-15----------------|
|-------13---13-15^---------15^-13-15-13--13--------15-15p13h15-15-|
|-12-14---14-------------------------------------------------------| 
|------------------------------------------------------------------|
|------------------------------------------------------------------|
|------------------------------------------------------------------|

Chorus

Verse:
Bell bottom blues don’t say goodbye
We’re surly gonna meet again
And if we do don’t you be surprised
If you find me with another lover

Chorus
(repeat the 2 I don’t wana fade away lines 3 or 4 times then 
end on the intro riff)





Chords: 
C-032010
E-022100
Am-002210
G/C-332003
F-133211
G-355433
A-002220
F#m-244222
D-xx0232
Amaj7-002224
A7-002020
            
Submit corrections

comments powered by Disqus
↑ Back to top | Derek And The Dominos Tabs for Bell Bottom Blues. Lyrics for acoustic guitar and electric guitar. Tablatures and chords are parodies/interpretations of the original songs. You may use it for private study, scholarship, research or language learning purposes only