» » »

Derek And The Dominos, Bell Bottom Blues Bass tabs (ver.1)

Artists:  A B C D E F G H I J K L M N O P Q R S T U V W X Y Z # 

Bell Bottom Blues Bass tabs (ver.1)

Derek And The Dominos Tabs
 Rating:
4/5 (4 votes)
Bell Bottom Blues lessons Tabs too difficult? Try these video lessons and learn fast
                Bell Bottom Blues
Derek and the Dominos

Intro
G|---------------------------------------------------------------------|
D|--10---10-9---9-7---7-5---5-3---3-5----------------------------------|
A|--------------------------------------9-7-5----7---------------------|
E|---------------------------------------------7---3-------------------|

Verse
G|---------------------------------------------------------------------|
D|--10---10-9---9-7---7-5---5-3---3-5----------------------------------|
A|--------------------------------------9-7-5----7---------------------|
E|---------------------------------------------7--3--------------------|

G|---------------------------------------------------------------------|
D|--10---10-9---9-7---7-5---5-3---3-5----------------------------------|
A|---------------------------------------------------------------------|
E|---------------------------------------------------------------------|

Chorus
G|---------------------------------------------------------------------|
D|--5/7---7---6---6---4--4----2----6---7---7---6----6---4-----4---2-/6-|
A|------7-------7-----------5------------7--------7--------5-----------|
E|---------------------------------------------------------------------|

G|-------------------2----------------------------1--4-----------------|
D|-----------2--4--2-----4--2--------------22--4-----------------------|
A|------234--------------------5--4--2--0------------------------------|
E|---5-----------------------------------------------------------------|

G|-------------------2----------------------------1--4-----------------|
D|-----------2--4--2-----4--2--------------22--4----------3--3--3/5----|
A|------234--------------------5--4--2--0------------------------------|
E|---5-----------------------------------------------------------------|

Outro (4X)                                                 End
G|-------------------2----------------------------1--4----|------------|
D|-----------2--4--2-----4--2--------------22--4----------|--3-3--3/5--|
A|------234--------------------5--4--2--0-----------------|------------|
E|---5----------------------------------------------------|------------|

Intro
Verse
Chorus
Solo (same as Verse)
Chorus
Verse
Chorus
Outro
End
            
Submit corrections

comments powered by Disqus
↑ Back to top | Derek And The Dominos Bass for Bell Bottom Blues. Lyrics for acoustic guitar and electric guitar. Tablatures and chords are parodies/interpretations of the original songs. You may use it for private study, scholarship, research or language learning purposes only