» » »

Our Faces Fall Apart Tabs (ver.3)

Artists:  A B C D E F G H I J K L M N O P Q R S T U V W X Y Z # 

Our Faces Fall Apart Tabs (ver.3)

Demon Hunter
Rating:
0/5 (0 votes)

Hard to play? Try these video lessons and learn fast.
                Hey. Don't know of this is right but this is how I play it.

Demon Hunter
Our Faces Fall Apart
Summer of Darkness

Intro 
Gt.1
|------------------------------------------------|
|------------------------------------------------|
|------------------------------------------------|
|------------------------------------------------|
|------------------------------------------------|
|0h1-11--0h1-11xxxx------------------------------| (1's not 11's)

Gt. 2
|------------------------------------------------|
|------------------------------------------------|
|------------------------------------------------|
|------------------------------------------------|
|------------------------------------------------|
|---------------------0h1-11--0h1-11-------------|

Both Gt.
|-----------------------------------------------|
|-----------------------------------------------|
|-----------------------------------------------|
|-----------------------------------------------|
|-----------------------------------------------|
|0h1-11--0h1-11xxxx--0h1-11--0h1-11-------------|


Verse (x's 4)
Both Gt.
|------------------------------------------------|
|------------------------------------------------|
|------------------------------------------------|
|0h1-11--0h1-11xxxx--0h1-11--0h1-11--0-----------|
|0h1-11--0h1-11xxxx--0h1-11--0h1-11--0-----------|
|0h1-11--0h1-11xxxx--0h1-11--0h1-11--0-----------|


|------------------------------------------------|
|------------------------------------------------|
|------------------------------------------------|
|------------------------------------------------|
|------------------------------------------------|
|444-333-11--444-333-11--444-333-11--444-333-11--|
 .............................................. p.m.

|------------------------------------------------|
|------------------------------------------------|
|------------------------------------------------|
|444-33-1--444-33-1--444-33-1--444-33-1----------|
|444-33-1--444-33-1--444-33-1--444-33-1----------|
|444-33-1--444-33-1--444-33-1--444-33-1----------|



Pre-Chorus (x's 4)
Both Gt.
|------------------------------------------------|
|------------------------------------------------|
|------------------------------------------------|
|111111----3-----00000000------------------------|
|111111----1-----00000000------------------------|
|111111----------00000000------------------------|


Chorus
Gt. 1 
|------------------------------------------------|
|------------------------------------------------|
|------------------------------------------------|
|66666666--33333333----66666666--33333333--------|
|44444444--11111111----44444444--11111111--------|
|44444444--11111111----44444444--11111111--------|

|-------------------------------------------------------|
|-------------------------------------------------------|
|-------------------------------------------------------|
|66666666--33333333----66666666--1-1-1-1-1-1-1-1--------|
|44444444--11111111----44444444--1-1-1-1-1-1-1-1--------|
|44444444--11111111----44444444--1-1-1-1-1-1-1-1--------|
                                 ...............
Gt.2 
|------------------------------------------------|
|------------------------------------------------|
|------------------------------------------------|
|----6---6----------3---3------------------------|
|--4---4---4------1---1---1----------------------|
|4--------------1--------------------------------|

|------------------------------------------------|
|------------------------------------------------|
|------------------------------------------------|
|----6---6----------3b--3b-3b--------------------|
|--4---4---4------1------------------------------|
|4--------------1--------------------------------|

|------------------------------------------------|
|------------------------------------------------|
|------------------------------------------------|
|----6---6----------3---3------------------------|
|--4---4---4------1---1---1----------------------|
|4--------------1--------------------------------|

|-------------------------------------------------------|
|-------------------------------------------------------|
|-------------------------------------------------------|
|----6---6------1-1-1-1-1-1-1-1-------------------------|
|--4---4---4----1-1-1-1-1-1-1-1-------------------------|
|4--------------1-1-1-1-1-1-1-1-------------------------|
                ...............


Verse (x's 4)
Both Gt.
|------------------------------------------------|
|------------------------------------------------|
|------------------------------------------------|
|0h1-11--0h1-11xxxx--0h1-11--0h1-11--0-----------|
|0h1-11--0h1-11xxxx--0h1-11--0h1-11--0-----------|
|0h1-11--0h1-11xxxx--0h1-11--0h1-11--0-----------|


|------------------------------------------------|
|------------------------------------------------|
|------------------------------------------------|
|------------------------------------------------|
|------------------------------------------------|
|444-333-11--444-333-11--444-333-11--444-333-11--|
 .............................................. p.m.

|------------------------------------------------|
|------------------------------------------------|
|------------------------------------------------|
|444-33-1--444-33-1--444-33-1--444-33-1----------|
|444-33-1--444-33-1--444-33-1--444-33-1----------|
|444-33-1--444-33-1--444-33-1--444-33-1----------|


Pre-Chorus (x's 4)
Both Gt.
|------------------------------------------------|
|------------------------------------------------|
|------------------------------------------------|
|111111----3-----00000000------------------------|
|111111----1-----00000000------------------------|
|111111----------00000000------------------------|




Chorus
Gt. 1 
|------------------------------------------------|
|------------------------------------------------|
|------------------------------------------------|
|66666666--33333333----66666666--33333333--------|
|44444444--11111111----44444444--11111111--------|
|44444444--11111111----44444444--11111111--------|

|-------------------------------------------------------|
|-------------------------------------------------------|
|-------------------------------------------------------|
|66666666--33333333----66666666--1-1-1-1-1-1-1-1--------|
|44444444--11111111----44444444--1-1-1-1-1-1-1-1--------|
|44444444--11111111----44444444--1-1-1-1-1-1-1-1--------|
                                 ...............

|-------------------------------------------------------|
|-------------------------------------------------------|
|-------------------------------------------------------|
|1-1-1-1-1-1-1-1--1-1-1-1-1-1-1-1--1-1-1-1-1-1-1-1------|
|1-1-1-1-1-1-1-1--1-1-1-1-1-1-1-1--1-1-1-1-1-1-1-1------|
|1-1-1-1-1-1-1-1--1-1-1-1-1-1-1-1--1-1-1-1-1-1-1-1------|
 ................   ..............................



Gt.2 
|------------------------------------------------|
|------------------------------------------------|
|------------------------------------------------|
|----6---6----------3---3------------------------|
|--4---4---4------1---1---1----------------------|
|4--------------1--------------------------------|

|------------------------------------------------|
|------------------------------------------------|
|------------------------------------------------|
|----6---6----------3b--3b-3b--------------------|
|--4---4---4------1------------------------------|
|4--------------1--------------------------------|

|------------------------------------------------|
|------------------------------------------------|
|------------------------------------------------|
|----6---6----------3---3------------------------|
|--4---4---4------1---1---1----------------------|
|4--------------1--------------------------------|

|-------------------------------------------------------|
|-------------------------------------------------------|
|-------------------------------------------------------|
|----6---6------1-1-1-1-1-1-1-1-------------------------|
|--4---4---4----1-1-1-1-1-1-1-1-------------------------|
|4--------------1-1-1-1-1-1-1-1-------------------------|
                ...............

|-------------------------------------------------------|
|-------------------------------------------------------|
|-------------------------------------------------------|
|1-1-1-1-1-1-1-1--1-1-1-1-1-1-1-1--1-1-1-1-1-1-1-1------|
|1-1-1-1-1-1-1-1--1-1-1-1-1-1-1-1--1-1-1-1-1-1-1-1------|
|1-1-1-1-1-1-1-1--1-1-1-1-1-1-1-1--1-1-1-1-1-1-1-1------|
 ................   ..............................


Post-Chorus(x's 2)
Gt. 1
|-------------------------------------------------------------------------|
|-------------------------------------------------------------------------|
|-------------------------------------------------------------------------|
|1--1--1--1--1--1--1--1------1--1--1--1--1--1--1--1-----------------------|
|1--1--1--1--1--1--1--1------1--1--1--1--1--1--1--1-----------------------|
|1--1--1--1--1--1--1--1------1--1--1--1--1--1--1--1-----------------------|
 ...................................................
Gt. 2 (x's 4)
|-----------------------------------------------------------|
|-----------------------------------------------------------|
|-----------------------------------------------------------|
|4-3-1-0--4-3-1-0--4-3-1-0--4-3-1-0-------------------------|
|-----------------------------------------------------------|
|-----------------------------------------------------------|
 ...................................

Both Gt. (x's 4)
|-----------------------------------------------------------|
|-----------------------------------------------------------|
|-----------------------------------------------------------|
|1111111111111111--1111111111111111-------------------------|
|1111111111111111--1111111111111111-------------------------|
|1111111111111111--1111111111111111-------------------------|
 ...................................

(x's 4)
|-----------------------------------------------------------|
|-----------------------------------------------------------|
|-----------------------------------------------------------|
|0-0-0-0-0-0-0-0-0-0-0-0-0-0-0-0----------------------------|
|0-0-0-0-0-0-0-0-0-0-0-0-0-0-0-0----------------------------|
|0-0-0-0-0-0-0-0-0-0-0-0-0-0-0-0----------------------------|
 When you play these, as soon sa you play it deaden it real fast.


|------------------------------------|
|------------------------------------|
|------------------------------------|
|1---3---0--------1---3---0----------|
|1---1---0--------1---1---0----------|
|1-------0--------1-------0----------|




Pre-Chorus (x's 4)
Both Gt.
|------------------------------------------------|
|------------------------------------------------|
|------------------------------------------------|
|111111----3-----00000000------------------------|
|111111----1-----00000000------------------------|
|111111----------00000000------------------------|

Outro
|------------------| Same as last time. 
|------------------| Play and then deaden real fast.
|------------------|
|0-0-0-0-0-0-0-0---|
|0-0-0-0-0-0-0-0---|
|0-0-0-0-0-0-0-0---|

Last Chorus is sung with no guitar, just some kinda keyboard effect.
Thats all. Don't hate if it sucks...
DH Rules!! \m/><\m/
            
Hard to play? Try these video lessons and learn fast. | Correct




comments powered by Disqus
↑ Back to top | Tablatures and chords are parodies/interpretations of the original songs. You may use it for private study, scholarship, research or language learning purposes only