» » »

Demon Hunter, Our Faces Fall Apart Tabs (ver.1)

Artists:  A B C D E F G H I J K L M N O P Q R S T U V W X Y Z # 

Our Faces Fall Apart Tabs (ver.1)

Demon Hunter Tabs
Rating:
0/5 (0 votes)
Our Faces Fall Apart lessons Tabs too difficult? Try these video lessons and learn fast
                Hey this is a very easy song, hunters:
drop-c
Intro (w/ the pulse thing)(about 2x):
d------------------------------|
a------------------------------|
f------------------------------|
c------------------------------|
g------------------------------|
c--0h1-1-0-1-1-xxxx-0-1-1-01-1-|
(for the verse you play that over and over with the added g and c string)
(you know what I mean)
but wait theres more:
preprechorus
d--------------------------------------|
a--------------------------------------|
f--------------------------------------|
c--------------------------------------|
g--------------------------------------|
c--(4-4-3-3--1-1--4-4--3-3--1-1)pm-----|
then c-4-4-3-3-1-1-4-4-3-3-1-1---------|
prechorus
d----------------------------------|
a----------------------------------|
f------------3---------------------|
c-1-1-1-1-1--x-0-------------------|
g-1-1-1-1-1--1-0-------------------|
c-1-1-1-1-1----0-------------------|
(I BUILT THIS ANGUISH WITH MY OWN HANDS)
chorus
d---------------------------------------|
a---------------------------------------|
f---------------------------------------|
c--6------------3 b^--------------------|
g--4-(arpeggio)-1-----------------------|
c--4------------1-----------------------|
bridge (you turn your eyes to me and hope for my decline....)
d--------------------------|
a--------------------------|
f--------------------------|
c--4-3-1-0-4-3-1-0-4-3-1-0-|
g--------------------------|
c--------------------------|

d--------------------------|
a--------------------------|
f--------------------------|
c--0-0-0-0-0---------------|
g--0-0-0-0-0---------------|
c--0-0-0-0-0---------------|
repeat pt. one (above)
thats it enjoy God bless Bush so on and so forth
later
            
Submit corrections

comments powered by Disqus
↑ Back to top | Demon Hunter Tabs for Our Faces Fall Apart. Lyrics for acoustic guitar and electric guitar. Tablatures and chords are parodies/interpretations of the original songs. You may use it for private study, scholarship, research or language learning purposes only