>
 >
Carry Me Down

Carry Me Down Guitar Tabs

Demon Hunter - Carry Me Down chords, tabs, tablatures, lyrics

Guitar lessons | Add/correct | Request | Top 50 tabs Artists:  A B C D E F G H I J K L M N O P Q R S T U V W X Y Z 0-9

Carry Me Down Guitar Tabs – Demon Hunter

CD, Sheet music, Poster

Do you like Carry Me Down? Share with your friends now
TabsTabs v2
Band: Demon Hunter
Tuning: Drop B (B-F#-B-E-G#-C#)

!NOTICE!
So I'm going to a do a 2 in one shot. I Am You and Carry Me Down!
I'll do Fading Away too and all the rest here soon.

Oh and there is a lot of notes to this song just because of so many 
of the additional guitar parts they added. But just remember!!!
If you get lost at all, just listen to the song and you'll know what I 
am talking about!
Good luck!

=========================================||
----------==|CARRY ME DOWN|==------------||
=========================================||
Track: Carry Me Down
Track Number: 05
Duration: 4:24
Guitar Tuning: Drop B (B F# B E G# C#)
Bass Tuning: Drop B (B F# B E)
Effects Used: 
Techniques Used: Bends, Vibrato, Pizzicato
Instruments/Musicians: Ethan Luck; Lead Guitar,
Don Clark; Rhythm Guitar, Jon Dunn; Bass
Additional Song Notes: 

-There's acoustic guitar in this as well as quite a few additional
guitar parts during some parts of the song. 

-Ethan = Right Channel
-Don = Left Channel

-Like the Lead Us Home tab, I can gladly add in the vocal melodies
and harmonies but do you guys really want it? For right now I'll leave it
out but I'll possibly update the tab and put the vocal stuff in.

-Song is in E Minor just like Fading Away. It's at least based in 
E minor with a B Mixolydian feel to it. 


Tab Legend:
/ = slide up
\ = slide down
. = Palm Mute
* = Pinched Harmonic
~ = Vibrato
b = Slight bend
' = Pizzicato

============--\\\\\\\\\\\\\\\\\\\\\\\\\\\\\\\\\\\\\\\\\\\\\\\\\\\\\\\\\\\\\
INTRO==---|================================================================
============--/////////////////////////////////////////////////////////////


0:00
Both Guitars
G#||------------||
C#||------------||
E ||------------||
B ||-8-7--3--5--||
F#||-8-7--3--5--||
B ||-8-7--3--5--|| 

Jon
E ||------------||
B ||------------||
F#||------------||
B ||-8-7--3--5--|| 


MAIN SONG RIFF
0:02
(This is the main riff of the song)
Both Guitars - Let the chords ring out
G#||---------------------------------||
C#||---------------------------------||
E ||---------------------------------||
B ||-0---------------3---------------||
F#||-0---------------3---------------||
B ||-0---------------3---------------|| x2

Jon
E ||---------------------------------||
B ||---------------------------------||
F#||---------------------------------||
B ||-0---------------3---------------|| x2


Additional Guitars
-There is actually 4 guitars here: 3 guitars playing one whole part.
An electric and an acoustic playing the same line and another acoustic
playing the same line an octave higher. Then there's a rhythm acoustic
guitar strumming chords over this riff.
-This goes for the whole riff all the way through out the song.
Electric Guitar + Acoustic #1 (Let ring the notes ring out)
G#||---------------------------------||
C#||---------------------------------||
E ||-----0----------------0----------||
B ||---7----------------7------------||
F#||---------------------------------||
B ||---------------------------------|| x2

Acoustic #2 
G#||---------------------------------||
C#||---10--------------10------------||
E ||------12--------------12---------||
B ||---------------------------------||
F#||---------------------------------||
B ||---------------------------------|| x2

Acoustic #3 - Strumming these Chords:
This guitar is very faintly heard and is burried underneath
all the layers of instruments and such but it's there.
(Not sure if these are the exact chord shapes
their playing but it really does not matter too much.
Their the chords their playing though)
-Strum the chords. Not just once, This is just to show you
what to strum. Follow the rhythm of the song to get a pattern.
     Bm                Dsus
G#||-5----------------8--------------||
C#||-6----------------8--------------||
E ||-7----------------10-------------||
B ||-7----------------10-------------||
F#||-5----------------8--------------||
B ||---------------------------------|| x2 

=== FOR THE SAKE OF TAB SPACE WE'RE JUST GOING TO CALL THIS 
WHOLE RIFF THE 'MAIN RIFF'

============--\\\\\\\\\\\\\\\\\\\\\\\\\\\\\\\\\\\\\\\\\\\\\\\\\\\\\\\\\\\\\
VERSE==---|===================================================
============--/////////////////////////////////////////////////////////////


0:15
"And If you see me loosing ground..."
Play MAIN RIFF x4


0:28
Additional Guitar - Panned to the RIGHT(R)
(Play this after x2 of the MAIN RIFF in the verse)
-Let the octaves ring out; put a ton of gain on this
Let the distortion feedback during the ring out parts
   "Yours... And If you see me loosing faith..."
G#||---------------------------------||
C#||---------------------------------||
E ||-7------------10-9--5------------||
B ||-x------------x--x--x------------||
F#||-5------------8--7--3------------||
B ||---------------------------------|| x2

============--\\\\\\\\\\\\\\\\\\\\\\\\\\\\\\\\\\\\\\\\\\\\\\\\\\\\\\\\\\\\\
PRECHORUS==---|============================================================
============--/////////////////////////////////////////////////////////////


0:42
Both Guitars
Let the B5 chord at the end ring out for rest of the measure
    "doors...                           Save sorrow..."
G#||----------------------------------------------------||
C#||----------------------------------------------------||
E ||----------------------------------------------------||
B ||-8-8-8-8-8-8-8-8-8-8-8-8-8-8-8-8-3-3-3-3-5-5-5-0----||
F#||-8-8-8-8-8-8-8-8-8-8-8-8-8-8-8-8-3-3-3-3-5-5-5-0----||
B ||-8-8-8-8-8-8-8-8-8-8-8-8-8-8-8-8-3-3-3-3-5-5-5-0----|| 

Jon
E ||----------------------------------------------------||
B ||----------------------------------------------------||
F#||----------------------------------------------------||
B ||-8-8-8-8-8-8-8-8-8-8-8-8-8-8-8-8-3-3-3-3-5-5-5-0----||


0:48 
Both Guitars
Pizzicato the the last D5 chord. 
    "Doubt...                         Bleed every...  Will you..."
G#||------------------------------------------------------||
C#||------------------------------------------------------||
E ||------------------------------------------------------||
B ||-8-8-8-8-8-8-8-8-8-8-8-8-8-8-8-8-3-3-3-3-5-5-5-0--3'--||
F#||-8-8-8-8-8-8-8-8-8-8-8-8-8-8-8-8-3-3-3-3-5-5-5-0--3'--||
B ||-8-8-8-8-8-8-8-8-8-8-8-8-8-8-8-8-3-3-3-3-5-5-5-0--3'--|| 

Jon
E ||------------------------------------------------------||
B ||------------------------------------------------------||
F#||------------------------------------------------------||
B ||-8-8-8-8-8-8-8-8-8-8-8-8-8-8-8-8-3-3-3-3-5-5-5-0--3'--||

============--\\\\\\\\\\\\\\\\\\\\\\\\\\\\\\\\\\\\\\\\\\\\\\\\\\\\\\\\\\\\\
CHORUS==---|===============================================================
============--/////////////////////////////////////////////////////////////


0:55
Both Guitars
    "Carry me down the Isle that final day..."
G#||--------------------------------------------------||
C#||--------------------------------------------------||
E ||--------------------------------------------------||
B ||-5-5-5-5-5---1-1-1-1-1----8-8-8-8-8-8-0---0--0----||
F#||-5-5-5-5-5---1-1-1-1-1----8-8-8-8-8-8-0---0--0----||
B ||-5-5-5-5-5---1-1-1-1-1----8-8-8-8-8-8-0---0--0----|| x2

Jon
E ||--------------------------------------------------||
B ||--------------------------------------------------||
F#||--------------------------------------------------||
B ||-5-5-5-5-5---1-1-1-1-1----8-8-8-8-8-8-0---0--0----|| x2

Additional Guitar
This is an added overdub. It's heavily layered in the chorus 
so It's hard to hear
G#||--------------------------------------------------||
C#||--------------------------------------------------||
E ||-10-10-10-10-10-10-10-10-10-10-10-10-10-10-10-10--||
B ||-x--x--x--x--x--x--x--x--x--x--x--x--x--x--x--x---||
F#||-8--8--8--8--8--8--8--8--8--8--8--8--8--8--8--8---||
B ||--------------------------------------------------|| x2


1:08
Both Guitars
    "Lower me down beneath that sky of grey..."
G#||-----------------------------------------------------------||
C#||-----------------------------------------------------------||
E ||-----------------------------------------------------------||
B ||-5-5-5-5-5-7-7-7-7-8-8-8-8-12-12-12-12-1-1-1-1-3---3--3----||
F#||-5-5-5-5-5-7-7-7-7-8-8-8-8-12-12-12-12-1-1-1-1-3---3--3----||
B ||-5-5-5-5-5-7-7-7-7-8-8-8-8-12-12-12-12-1-1-1-1-3---3--3----||

Jon
E ||-----------------------------------------------------------||
B ||-----------------------------------------------------------||
F#||-----------------------------------------------------------||
B ||-5-5-5-5-5-7-7-7-7-8-8-8-8-12-12-12-12-1-1-1-1-3---3--3----||

Additional Guitar
G#||--------------------------------------------------||
C#||--------------------------------------------------||
E ||-10-10-10-10-10-10-10-10-10-10-10-10-10-10-10-10--||
B ||-x--x--x--x--x--x--x--x--x--x--x--x--x--x--x--x---||
F#||-8--8--8--8--8--8--8--8--8--8--8--8--8--8--8--8---||
B ||--------------------------------------------------|| 


1:15
Both Guitars
    "Rain fall down and wash away your pain..."
G#||--------------------------------------------------||
C#||--------------------------------------------------||
E ||--------------------------------------------------||
B ||-5-5-5-5-5---1-1-1-1-1----8-8-8-8-8-8-0---0--0----||
F#||-5-5-5-5-5---1-1-1-1-1----8-8-8-8-8-8-0---0--0----||
B ||-5-5-5-5-5---1-1-1-1-1----8-8-8-8-8-8-0---0--0----|| 

Jon
E ||--------------------------------------------------||
B ||--------------------------------------------------||
F#||--------------------------------------------------||
B ||-5-5-5-5-5---1-1-1-1-1----8-8-8-8-8-8-0---0--0----|| 

Additional Guitar
G#||----------------------------------------------------||
C#||----------------------------------------------------||
E ||-10-10-10-10-10-10-10-10-10-10-10-10-10-10-10-10----||
B ||-x--x--x--x--x--x--x--x--x--x--x--x--x--x--x--x-----||
F#||-8--8--8--8--8--8--8--8--8--8--8--8--8--8--8--8-----||
B ||----------------------------------------------------|| 


============--\\\\\\\\\\\\\\\\\\\\\\\\\\\\\\\\\\\\\\\\\\\\\\\\\\\\\\\\\\\\\
VERSE 2==---|==============================================================
============--/////////////////////////////////////////////////////////////


1:21
Both Guitars
G#||------------||
C#||------------||
E ||------------||
B ||-8-7--3--5--||
F#||-8-7--3--5--||
B ||-8-7--3--5--|| 

Jon
E ||------------||
B ||------------||
F#||------------||
B ||-8-7--3--5--|| 


1:23
Play VERSE section

============--\\\\\\\\\\\\\\\\\\\\\\\\\\\\\\\\\\\\\\\\\\\\\\\\\\\\\\\\\\\\\
PRECHORUS 2==---|==========================================================
============--/////////////////////////////////////////////////////////////


1:50
Both Guitars
    "Mine...                          Let all the fear..."
G#||-----------------------------------------------------------||
C#||-----------------------------------------------------------||
E ||-----------------------------------------------------------||
B ||-8-8-8-8-8-8-8-8-8-8-8-8-8-8-8-8-3-3-3-3-5-5-5-0---1-1-1-1-|| 
F#||-8-8-8-8-8-8-8-8-8-8-8-8-8-8-8-8-3-3-3-3-5-5-5-0---1-1-1-1-|| 
B ||-8-8-8-8-8-8-8-8-8-8-8-8-8-8-8-8-3-3-3-3-5-5-5-0---1-1-1-1-|| x3

Jon
E ||-----------------------------------------------------------||
B ||-----------------------------------------------------------||
F#||-----------------------------------------------------------||
B ||-8-8-8-8-8-8-8-8-8-8-8-8-8-8-8-8-3-3-3-3-5-5-5-0---1-1-1-1-|| x3


2:
Both Guitars
Pizzicato the the last D5 chord. 
    "Doubt...                         Bleed every...  Will you..."
G#||------------------------------------------------------||
C#||------------------------------------------------------||
E ||------------------------------------------------------||
B ||-8-8-8-8-8-8-8-8-8-8-8-8-8-8-8-8-3-3-3-3-5-5-5-0--3'--||
F#||-8-8-8-8-8-8-8-8-8-8-8-8-8-8-8-8-3-3-3-3-5-5-5-0--3'--||
B ||-8-8-8-8-8-8-8-8-8-8-8-8-8-8-8-8-3-3-3-3-5-5-5-0--3'--|| 

Jon
E ||------------------------------------------------------||
B ||------------------------------------------------------||
F#||------------------------------------------------------||
B ||-8-8-8-8-8-8-8-8-8-8-8-8-8-8-8-8-3-3-3-3-5-5-5-0--3'--||


2:16
Play CHORUS section

============--\\\\\\\\\\\\\\\\\\\\\\\\\\\\\\\\\\\\\\\\\\\\\\\\\\\\\\\\\\\\\
BRIDGE==---|===============================================================
============--/////////////////////////////////////////////////////////////

-For the bridge, the song switches over to mainly B Minor


2:43
Both Guitars
                "Oh...                          The blood is..."
G#||------------------------------------------------------------||
C#||------------------------------------------------------------||
E ||------------------------------------------------------------||
B ||-1--1--1--1--3-3-3-2'--3-3-3-3-3-3-3-5-5-5-5-0-0-0-0'-0-0-0-||
F#||-1--1--1--1--3-3-3-2'--3-3-3-3-3-3-3-5-5-5-5-0-0-0-0'-0-0-0-||
B ||-1--1--1--1--3-3-3-2'--3-3-3-3-3-3-3-5-5-5-5-0-0-0-0'-0-0-0-|| 

Jon
E ||------------------------------------------------------------||
B ||------------------------------------------------------------||
F#||------------------------------------------------------------||
B ||-1--1--1--1--3-3-3-2'--3-3-3-3-3-3-3-5-5-5-5-0-0-0-0'-0-0-0-|| 

2:49
Ethan - Lead
(Ethan dubbed a harmony on this part too. The melody is panned to the
Left and the harmony to the Right)
Melody - Left(L)
G#||-----------------||
C#||-----------------||
E ||-----------------||
B ||-----------------||
F#||-7-8-7-5---------||
B ||---------7-5-3p0-|| 

Harmony - Right(R)
G#||-----------------||
C#||-----------------||
E ||-----------------||
B ||-5-7-5-----------||
F#||-------8-7-5-3p0-||
B ||-----------------|| 


2:51
Both Guitars                                             ___
     "Oh...                          I'm better off..."     |
G#||------------------------------------------------||
C#||------------------------------------------------||      |
E ||------------------------------------------------||
B ||-3-3-3-2'--3-3-3-3-3-3-3-5-5-5-5-0-0-0-0'-0-0-0-||      |
F#||-3-3-3-2'--3-3-3-3-3-3-3-5-5-5-5-0-0-0-0'-0-0-0-|| 
B ||-3-3-3-2'--3-3-3-3-3-3-3-5-5-5-5-0-0-0-0'-0-0-0-||      |

Jon                                                         |
E ||------------------------------------------------||
B ||------------------------------------------------||      |
F#||------------------------------------------------||
B ||-3-3-3-2'--3-3-3-3-3-3-3-5-5-5-5-0-0-0-0'-0-0-0-||      |

                                                            |

2:56                                                        |
Ethan - Lead  
Melody - Left(L)                                            |
G#||-----------------||
C#||-----------------||                                     | x3
E ||-----------------||
B ||-----------------||                                     |
F#||-7-8-7-5---------||
B ||---------7-5-3p0-||                                     | 
  
Harmony - Right(R)                                          |
G#||-----------------||                                   
C#||-----------------||                                     |
E ||-----------------||
B ||-5-7-5-----------||                                     |
F#||-------8-7-5-3p0-|| 
B ||-----------------||                              _______|


3:11
Ethan - Lead
(Kick up the gain and let the notes ring out)
    "-Again..."
G#||-------------------------------------------||
C#||-------------------------------------------||
E ||-12--------------12------------------------||
B ||-----15--14--15-----15-14br~----------10~--||
F#||------------------------------7/10-12------||
B ||-------------------------------------------|| 

Don - Rhythm
G#||---------------------------------------------------------------||
C#||---------------------------------------------------------------||      
E ||---------------------------------------------------------------||
B ||-3-3-3-3'--3-3-3-3-3-3-3-5-5-5-5-0-0-0-0'-0-0-0-0-0-0-0-1-1-1--||      
F#||-3-3-3-3'--3-3-3-3-3-3-3-5-5-5-5-0-0-0-0'-0-0-0-0-0-0-0-1-1-1--|| 
B ||-3-3-3-3'--3-3-3-3-3-3-3-5-5-5-5-0-0-0-0'-0-0-0-0-0-0-0-1-1-1--|| 

Jon                                                         
E ||---------------------------------------------------------------||
B ||---------------------------------------------------------------||      
F#||---------------------------------------------------------------||
B ||-3-3-3-3'--3-3-3-3-3-3-3-5-5-5-5-0-0-0-0'-0-0-0-0-0-0-0-1-1-1--||


3:17
Ethan - Lead
(Kick up the gain and let the notes ring out)
G#||-----------------------------------------------||
C#||-----------------------------------------------||
E ||-12--------------12----------------------------||
B ||-----15--14--15-----15-14br----12--------------||
F#||----------------------------15-----15--12~~~---||
B ||-----------------------------------------------|| 

Don - Rhythm
G#||------------------------------------------------------------||
C#||------------------------------------------------------------||      
E ||------------------------------------------------------------||
B ||-3-3-3-3'--3-3-3-3-3-3-3-5-5-5-5-0-0-0-0'-0-0-0-1--1--1--1--||      
F#||-3-3-3-3'--3-3-3-3-3-3-3-5-5-5-5-0-0-0-0'-0-0-0-1--1--1--1--|| 
B ||-3-3-3-3'--3-3-3-3-3-3-3-5-5-5-5-0-0-0-0'-0-0-0-1--1--1--1--||

Jon                                                         
E ||------------------------------------------------------------||
B ||------------------------------------------------------------||      
F#||------------------------------------------------------------||
B ||-3-3-3-3'--3-3-3-3-3-3-3-5-5-5-5-0-0-0-0'-0-0-0-1--1--1--1--||


3:24
Acoustic Guitar
(Listen to the song for the strumming pattern)
"Carry Me Down the Isle that final day..."
                                        "With your..."
G#||-----------------------------------------||
C#||------------4-4-4-4-4-4------------------||      
E ||---7-7-7-7--3-3-3-3-3-3--10-10-10---7----||
B ||-5-5-5-5-5--1-1-1-1-1-1--8--8--8----0----||      
F#||-5-5-5-5-5--1-1-1-1-1-1--8--8--8----0----|| 
B ||-5-5-5-5-5--1-1-1-1-1-1--8--8--8--0-0----||
                                      .

3:30
Play CHORUS section x2 

============--\\\\\\\\\\\\\\\\\\\\\\\\\\\\\\\\\\\\\\\\\\\\\\\\\\\\\\\\\\\\\
OUTRO==---|================================================================
============--/////////////////////////////////////////////////////////////

4:17
Let the E5 chord ring out
Both Guitars
G#||------------------------||
C#||------------------------||
E ||------------------------||
B ||-8-7--3--5--------------||
F#||-8-7--3--5--------------||
B ||-8-7--3--5--------------|| 

Jon
E ||------------------------||
B ||------------------------||
F#||------------------------||
B ||-8-7--3--5--------------|| 





Lyrics:
And if you see me losing ground
Don't be afraid to lie
I know the pain inside my heart cant break the fear inside of yours
And if you see me losing faith
In what it means to die
Don't let me leave before I know what lies behind the stained glass doors

Save sorrow for the souls in doubt
Bleed every care out

[Chorus:]
Will you carry me down the aisle that final day
With your tears and cold hands shaking from the weight
When you lower me down beneath that sky of gray
Let the rain fall down and wash away your pain

For every word we never spoke
We have a tear to cry
For every silence like a wall between a better you and I
So if you see me losing sight
Of all the death in life
You'll find the peace in every time I failed to see the death in mine

Let all the fear inside you drown
Tear out the blade and lay it down
Save sorrow for the souls in doubt
Bleed every care out

[Chorus]

Oh, the blood is rushing out
Oh, I'm better off without
Oh, the walls are closing in
Oh, sing for me again

[Chorus]
(Rain down, oh rain down, no care for the flood) 





Comments


Popular Demon Hunter tabs & chords
Heartstrings Come Undone 1 Bass Tabs
My Throat Is An Open Grave 3 Bass Tabs
My Heartstrings Come Undone Chords
1000 Apologies Tabs
Fiction Kingdom Tabs
Fire To My Soul 1 Tabs
Lead Us Home Tabs
Through The Black Tabs
Annihilate The Corrupt Ukulele
Tomorrow Never Comes Ukulele


Song lyrics



↑ Back to top | Tablatures and chords are parodies/interpretations of the original songs. You may use it for private study, scholarship, research or language learning purposes only
© 2014 AZChords.com Contact us | Privacy policy | DMCA | Add/correct tabs | Request tabs | Top 50 tabs