» » »

Carry Me Down Tabs (ver.2)

Artists:  A B C D E F G H I J K L M N O P Q R S T U V W X Y Z # 

Carry Me Down Tabs (ver.2)

Demon Hunter
Rating:
5/5 (7 votes)

Hard to play? Try these video lessons and learn fast.
                Intro
E-----------------|
B-----------------|
G-------------4---|
D---5\0-0-2-2-4---|
A---5\0-0-2-2-2---|
D---5\0-0-2-2-----|

Verse1
|-----2---0-----2---0-----(0)-----|
|---0---0-----0---0-----(3)-------|
|-----------------------------4---|
|-----------0-----------------4---|    (repeat)
|-----------0-----------------2---|
|-----------0---------------------|

|----------------------------------------------------------------|
|----------------------------------------------------------------|
|-------------------------4-----------------------4---------xx---|
|---55555555555555555-00224-55555555555555555-00224---------xx---|
|---55555555555555555-00222-55555555555555555-00222---------xx---|
|---55555555555555555-0022--55555555555555555-0022----------xx---|

Chorus
|-------------------------------------|
|---(can't hear it enoguh to----------|
|----say what the chords are...-------|
|----just try D, E, G,and F# chords)--|
|-------------------------------------|
|-------------------------------------|

|-----------------|
|-----------------|
|-------------4---|
|---5\0-0-0-2-4---|
|---5\0-0-2-2-2---|
|---5\0-0-2-2-----|

Verse2
same as Verse1

Chorus
|---
|---
|---
|---
|---
|---

|------------|
|------------|
|------------|
|---5-5-5-5--|
|---5-5-5-5--|
|---5-5-5-5--|

Ooh... part
|---------------------------------------|
|---------------------------------------|
|----------------444444-----------------|
|---000000002222-444444-----------------|
|---000000002222-222222-7-9-5-7-4-5-2---|
|---000000002222------------------------|

|---------------------------------------|
|---------------------------------------|
|----------------444444-----------------|
|---000000002222-444444-----------------|
|---000000002222-222222-5-7-4-5-2-4-0---|
|---000000002222------------------------|

|---------------------------------------|
|---------------------------------------|
|----------------444444-----------------|
|---000000002222-444444-----------------|
|---000000002222-222222-7-9-5-7-4-5-2---|
|---000000002222------------------------|

Solo
|-----------------------------------------------------------------------|
|-----------------------------------------------------------------------|
|---9-9-7-7-6-7-9-7-6-7-6------------9-9-7-7-6-7-9-7-6-7-6--------------|
|-------------------------9-9------7-----------------------7-9-7--------|
|------------------------------7-9-------------------------------9------|(Bend)
|-----------------------------------------------------------------------|

|---2222xx--------------------|
|---3333xx--------------------|
|---2222xx-------66xx---------|
|---0000xx-555xx-66xx-4-44x---|
|---0000xx-555xx-55xx-4-44x---|
|---0000xx-555xx------4-44x---|

Chorus
|--------------------------|
|--------------------------|
|--------------------------|
|---xx-5\0-0-2-------------|
|---xx-5\0-0-2-------------|
|---xx-5\0-0-2-------------|
            
Hard to play? Try these video lessons and learn fast. | Correct




comments powered by Disqus
↑ Back to top | Tablatures and chords are parodies/interpretations of the original songs. You may use it for private study, scholarship, research or language learning purposes only