» » »

Chat Noir Tabs (ver.2)

Artists:  A B C D E F G H I J K L M N O P Q R S T U V W X Y Z # 

Chat Noir Tabs (ver.2)

Delux
Rating:
0/5 (0 votes)

Hard to play? Try these video lessons and learn fast.
                Palm Mute:*  |
Slide: / \   |
_ _ _ _ _ _ _|


Intro:

Guitarra 1

e|----------------------------------------------------------------------------------|
b|--0--0--0--0--0--0--0--0--0--0--0--0--0--0--0--0--0--0--0--0--0--0--0--0--0--0--0-|
g|---0--0-----0--0-----0--0-----0--0-----0--0-----0--0-----0--0-----0--0-----0--0---|
d|----------------------------------------------------------------------------------|
a|-3--3--3--3--3--3--3--3--3--3--3--3--3--3--3--3--3--3--3--3--3--3--3--3--3--3--3--|
E|----------------------------------------------------------------------------------|

Bajo

g|----------------------------------------------------------------------------------|
d|----------------------------------------------------------------------------------|
a|-33333333/55555555/77777777\55555555\33333333/55555555/77777777\55555555/33333333-|
E|----------------------------------------------------------------------------------|

Guitarra 2

e|----------------------------------------------------------------------------------|
b|-------------------------------------3------------------------------------3----3--|
g|--------------------------------------0---------------------------------00-0-00---|
d|----------------------------------------------------------------------------------|
a|----------------------------------------------------------------------------------|
E|----------------------------------------------------------------------------------|
                                       Dejando sonar y aumentando el volumen


Guitarra 1

e|--------------------------------------------------------------------|
b|--------------------------------------------------------------------|
g|--------------------------------------------------------------------|
d|-55555---77777---99999---77777---55555---77777---99999---77777----5-|
a|-33333-0-55555-0-77777-0-55555-0-33333-0-55555-0-77777-0-55555-0--3-|
E|--------------------------------------------------------------------|
   ***** * ***** * ***** * ***** * ***** * ***** * ***** * ***** *   No se, como pedirte...

Bajo

g|--------------------------------------------------------------------|
d|--------------------------------------------------------------------|
a|-33333---55555---77777---55555---33333---55555---77777---55555----3-|
E|--------------------------------------------------------------------|

Guitarra 2
Pausando entre nota y nota
e|---------------------------------------------------------------------------------|
b|---------------------------------------------------------------------------------|
g|--55-44----55-44----77-55-44--55-44-2-0--55-44----55-44----77-55-44--55-44-20----|
d|-------555------555--------------------4------555------555-------------------4-5-|
a|---------------------------------------------------------------------------------|
E|---------------------------------------------------------------------------------|


Guitarra 1

e|-------------------------------------------------------------------------|
b|-------------------------------------------------------------------------|
g|-------------------------------------------------------------------------|
d|-55555555-77777777-99999999-77777777-55555555-77777777-44444444-99999999-|
a|-33333333-55555555-77777777-55555555-33333333-55555555-22222222-77777777-|
E|-------------------------------------------------------------------------|
   ******** ******** ******** ******** ******** ******** ******** ********


   No se    como pedirte que regreses otra vez a mi     pues cuantas veces
                                                                  crees que puedas perdonar
Guitarra 2

e|----------------------------------------------------|
b|----------------------------------------------------|
g|-----------5-4-5-------------7-5-4------------5-4-5-|
d|----------------------------------------------------|
a|----------------------------------------------------|
E|----------------------------------------------------|

Guitarra 1

e|--------------------------------------------------------------------------|
b|--------------------------------------------------------------------------|
g|--------------------------------------------------------------------------|
d|-55555555-77777777-99999999-77777777-55555555-77777777-4-4-4-4-5-5-5-5-55-|
a|-33333333-55555555-77777777-55555555-33333333-55555555-2-2-2-2-3-3-3-3-33-|
E|--------------------------------------------------------------------------|
   ******** ******** ******** ******** ******** ******** *   *   *   *

     Cansada de sufrir Cansada de esperar en cada esquina
                                                         Pienso cer tu sombra
Guitarra 2

e|-3------------------3---3-----------------------------|
b|-3-------------------3--3-----------------------------|
g|-0-----------------0----0-----------------------------|
d|------------------------------------------------------|
a|------------------------------------------------------|
E|------------------------------------------------------|
    Dejando sonar





Coro

Guitarra 1

e|-----------------------------------------------------------------------------|
b|-----------------------------------------------------------------------------|
g|------------------7-7777-77-77-777-9-9999-99-99-999--------------------------|
d|-5-5555-55-55-555-7-7777-77-77-777-9-9999-99-99-999--44-444-44-4-55-555-55-5-|x2
a|-5-5555-55-55-555-5-5555-55-55-555-7-7777-77-77-777--22-222-22-2-33-333-33-3-|
E|-3-3333-33-33-333------------------------------------------------------------|
                                                       **     **   **     **
                                      Te quiero cuando tu   no     estas

Guitarra 2

e|----------------------------------------------------------------------------------------------------|
b|-8-8888-88-88-888-10-10101010-1010-1010-101010-12-12121212-1212-1212-121212-77-777-77-7-88-888-88-8-|
g|-x-xxxx-xx-xx-xxx-x -x x x x -x x -x x -x x x -x -x x x x -x x -x x -x x x -xx-xxx-xx-x-xx-xxx-xx-x-|x2
d|-5-5555-55-55-555-7 -7 7 7 7 -7 7 -7 7 -7 7 7 -9 -9 9 9 9 -9 9 -9 9 -9 9 9 -44-444-44-4-55-555-55-5-|
a|----------------------------------------------------------------------------------------------------|
E|----------------------------------------------------------------------------------------------------|
                                                                              **     **   **     **



Coro 2


e|-----------------------------------------------------------------------------|
b|-----------------------------------------------------------------------------|
g|------------------7-7777-77-77-777-9-9999-99-99-999-----------55555----------|
d|-5-5555-55-55-555-7-7777-77-77-777-9-9999-99-99-999--44444444-xxxxx----------|
a|-5-5555-55-55-555-5-5555-55-55-555-7-7777-77-77-777--22222222-33333----------|
E|-3-3333-33-33-333------------------------------------------------------------|
                                                       ********
                                             lo que yo te hice setir


e|-----------------------------------------------------------------------------|
b|-----------------------------------------------------------------------------|
g|-555-----7-77-77777------------7-77-55-4-555-----7-77-77777------------------|
d|-555-555-7-77-77777-2-22-22222-7-77-55-4-555-555-7-77-77777-4444444444444444-|
a|-333-555-5-55-55555-2-22-22222-5-55-33-2-333-555-5-55-55555-2222222222222222-|
E|-----333------------0-00-00000---------------333-----------------------------|
                                                              ****************
           Y yo siento que me empiezo....                     Cuando tu no estas



Guitarra 1

e|----------------------------------------------------------------------------------------------------|
b|--0--0--0--0--0--0--0--0--0--0--0--0--0--0--0--0--0--0--0--0--0--0--0--0--0--0--0--0--0--0--0--0--0-|
g|---0--0-----0--0-----0--0-----0--0-----0--0-----0--0-----0--0-----0--0-----0--0-----0--0-----0--0---|
d|----------------------------------------------------------------------------------------------------|
a|-3--3--3--3--3--3--3--3--3--3--3--3--3--3--3--3--3--3--3--3--3--3--3--3--3--3--3--3--3--3--3--3--3--|
E|----------------------------------------------------------------------------------------------------|

Bajo

g|----------------------------------------------------------------------------------------------------|
d|----------------------------------------------------------------------------------------------------|
a|-3-----3-----5-----5-----7-----7-----5-----5-----3-----3-----5-----5-----7-----7-----5-----5-----3--|
E|----------------------------------------------------------------------------------------------------|


Guitarra 1

e|--------------------------------------------------------------------------------|
b|--------------------------------------------------------------------------------|
g|--------------------------------------------------------------------------------|
d|-5555555---7777777---9999999---7777777---5555555---7777777---9999999---77777777-|
a|-3333333-0-5555555-0-7777777-0-5555555-0-3333333-0-5555555-0-7777777-0-55555555-|
E|--------------------------------------------------------------------------------|
   ******* * ******* * ******* * ******* * ******* * ******* * ******* * ********

Guitarra 2

e|----------------------------------------------------------------------------------------------|
b|----------------------------------------------------------------------------------------------|
g|--55-44------55-44-55-44--77-55-44-22-44-55-4-2-0--55-44-----55-44-55-44-77-55-44-22-44-55-77-|
d|-------555----------------------------------------------555-----------------------------------|
a|----------------------------------------------------------------------------------------------|
E|----------------------------------------------------------------------------------------------|

Coro


Outro

e|------------------------|
b|------------------------|
g|--55-44----55-44-2-0----|
d|-------555----------4-5-|
a|----------------------5-|
E|----------------------3-|
            
Hard to play? Try these video lessons and learn fast. | Correct




comments powered by Disqus
↑ Back to top | Tablatures and chords are parodies/interpretations of the original songs. You may use it for private study, scholarship, research or language learning purposes only