» » »

Delux, Chat Noir Tabs (ver.1)

Artists:  A B C D E F G H I J K L M N O P Q R S T U V W X Y Z # 

Chat Noir Tabs (ver.1)

Delux Tabs
Rating:
0/5 (0 votes)
Chat Noir lessons Tabs too difficult? Try these video lessons and learn fast
                
Este grupo rifa nose komo es ke no tienen de este grupo!!!!!
bueno esta cancion esta rariya pero ahi va

|-----------------------------|
|-----------------------------|
|-----4---4---4---4---4---4---|
|------5---5-------5---5------|  x?(escucha la cancion)
|---3---3---3-------3---3-----|
|-----------------------------|
PM            .           .


|--------------------------------------------------------------------|
|--------------------------------------------------------------------|
|--------------------------------------------------------------------|
|---9-9--7-7--5-5---9-9--7-7--5-5---11-11--9-9--7-7---9-9--7-7--7-5/-| x2
|---9-9--7-7--5-5---9-9--7-7--5-5---11-11--9-9--7-7---9-9--7-7--7-5/-|
|---7-7--5-5--3-3---7-7--5-5--3-3----9--9--7-7--5-5---7-7--5-5--5-3/-|


   Verso(gtr 1)

|---------------------------------------------------------------------|
|---------------------------------------------------------------------|
|---------------------------------------------------------------------|
|---------------------------------------------------------------------|
|---44444444666666668888888866666666444444446666666633333333/88886666-|
|---------------------------------------------------------------------|
PM  ........................................................ ........
   Verso(gtr2)                             
|---------------------------------------------------------------------|
|---------------------------------------------------------------------|
|---------------------------------------------------------------------|
|------7x6x7---7x6x4---7x6x777776674---7x6x7---7x6x4---7x6x7-77776674-|
|---------------------------------------------------------------------|
|---------------------------------------------------------------------|


Pre chorus (2 gtrs)

|---------------------|
|---------------------|
|---5xx5xx7xx7xx7xx9--|
|---5xx5xx7xx7xx7xx9--|
|---3xx3xx5xx5xx5xx7--|
|---------------------|


Coro

|------------------------------------------------------------------------|
|------------------------------------------------------------------------|
|------------------------------------------------------------------------|
|---5-55555555555555/77777777777777/99999999999999x-x999xx9xx101010xx10--|x2
|---5-55555555555555/77777777777777/99999999999999x-x999xx9xx101010xx10--|
|---3-33333333333333/55555555555555/77777777777777x-x777xx7xx-8-8-8xx-8--|


Verso 2 (gtr1)

|-----------------------------|
|-----------------------------|
|-----4---4---4---4---4---4---|
|------5---5-------5---5------|  x?(escucha la cancion)
|---3---3---3-------3---3-----|
|-----------------------------|
PM            .           .

despues de eso :

(gtr 1)

|----------------------------------|
|----------------------------------|
|----------------------------------|
|----------------------------------|
|---222225555522222777772222255555-|
|----------------------------------|
PM  ..............................


(gtr 2)(no estoy segur o si es asi)

|----------------------------------|
|----------------------------------|
|---xx5x5-5-xx5x5-5xx5x5-5xx5x5-5--|
|---xx5x5-5-xx5x5-5xx5x5-5xx5x5-5--|
|---xx3x3-3-xx3x3-3xx3x3-3xx3x3-3--|
|----------------------------------|


Pre chorus (2 gtrs)

|---------------------|
|---------------------|
|---5xx5xx7xx7xx7xx9--|
|---5xx5xx7xx7xx7xx9--|
|---3xx3xx5xx5xx5xx7--|
|---------------------|

Coro

|------------------------------------------------------------------------|
|------------------------------------------------------------------------|
|------------------------------------------------------------------------|
|---5-55555555555555/77777777777777/99999999999999x-x999xx9xx101010xx10--|
|---5-55555555555555/77777777777777/99999999999999x-x999xx9xx101010xx10--|
|---3-33333333333333/55555555555555/77777777777777x-x777xx7xx-8-8-8xx-8--|


|---------------------------------------------------------------------|
|---------------------------------------------------------------------|
|-----------------------------------------------------------3-3-3-3-3-|
|---5-55555555555555/77777777777777/99999999999999x-xxxxxxx-4-4-4-4-4-|
|---5-55555555555555/77777777777777/99999999999999x-xxxxxxx-4-4-4-4-4-|
|---3-33333333333333/55555555555555/77777777777777x-xxxxxxx-2-2-2-2-2-|

Bridge (both gtrs, dos gtrs)

|-------------------------------------------|
|-------------------------------------------|
|---444--2-22--7---77-7777--------777-4-2---|
|---444--2-22--7---77-7777-555555-777-4-2---|
|---222--0-00--5---55-5555-555555-555-2-0---|
|--------------------------333333-----------|

|-------------------------------------------|
|-------------------------------------------|
|---444--2-22--7---77-7777------------------|
|---444--2-22--7---77-7777-xxxxxxxxxxxxxx---|
|---222--0-00--5---55-5555-xxxxxxxxxxxxxx---|
|--------------------------xxxxxxxxxxxxxx---|


|-----------------------------|
|-----------------------------|
|-----4---4---4---4---4---4---|
|------5---5-------5---5------|  x?(escucha la cancion)
|---3---3---3-------3---3-----|
|-----------------------------|
PM            .           .

(gtr 1)

|-------------------------------------------------------|
|-------------------------------------------------------|
|---5-5-4-4-------5-5-4-4-5-5---7-7-5-5-4-4-2-2-55442---|
|-----------5-5--------------------------------------5--|
|-------------------------------------------------------|
|-------------------------------------------------------|

(gtr 2)

|-------------------------------------------------------|
|-------------------------------------------------------|
|-------------------------------------------------------|
|---33333-55555-77777-55555-33333-55555-77777-55555-----|
|-------------------------------------------------------|
|-------------------------------------------------------|

(gtr 1)

|-------------------------------------------------------|
|-------------------------------------------------------|
|---5-5-4-4-------5-5-4-4-5-5---7-7-5-5-4-4-2-2-554477--|
|-----------5-5-----------------------------------------|
|-------------------------------------------------------|
|-------------------------------------------------------|

(gtr 2)

|-------------------------------------------------------|
|-------------------------------------------------------|
|-------------------------------------------------------|
|---33333-55555-77777-55555-33333-55555-77777-55555-----|
|-------------------------------------------------------|
|-------------------------------------------------------|



Coro

|------------------------------------------------------------------------|
|------------------------------------------------------------------------|
|------------------------------------------------------------------------|
|---5-55555555555555/77777777777777/99999999999999x-x999xx9xx101010xx10--|x2
|---5-55555555555555/77777777777777/99999999999999x-x999xx9xx101010xx10--|
|---3-33333333333333/55555555555555/77777777777777x-x777xx7xx-8-8-8xx-8--|

End on: (gtr1)
|---------------------------------|
|---------------------------------|
|---------------------------------|
|---9-9--7-7--5-5---9-9--7-7--7-5 |
|---9-9--7-7--5-5---9-9--7-7--7-5 |
|---7-7--5-5--3-3---7-7--5-5--3-3 |
 
(both gtrs)

|----|
|----|
|----|
|-4~-|
|-2~-|
|-0~-|
            
Submit corrections

comments powered by Disqus
↑ Back to top | Delux Tabs for Chat Noir. Lyrics for acoustic guitar and electric guitar. Tablatures and chords are parodies/interpretations of the original songs. You may use it for private study, scholarship, research or language learning purposes only