» » »

Streetwalker Tabs (ver.1)

Artists:  A B C D E F G H I J K L M N O P Q R S T U V W X Y Z # 

Streetwalker Tabs (ver.1)

Delta Spirit
Rating:
5/5 (1 vote)

Hard to play? Try these video lessons and learn fast.
                -------------------------------------------------------------------------------
-------------------------------------------------------------------------------

Tuning: Standard


An amazing song.  An amazing band.  An even more amazing message.

Intro:

e|----4-----4--7--7---6--6-6------------------------------------------|
B|----5-----5--5--5---5--5-5----4--4---------4---4/5--5--4------------|
G|----4-----4--4--4---4--4-4----4--4-----4---4---4/6--6--4------------|
D|----6-----6--6--6---6--6-6----4--4-----4/6---4-----------4----------|
A|--4-4-----4-------------------2--2----------------------------------|
E|--------------------------------------------------------------------|


e|----4-----4--7--7---6--6-6------------------------------------------|
B|----5-----5--5--5---5--5-5----4--4-----4-4-4-4----------------------|
G|----4-----4--4--4---4--4-4----4--4-----4-4-4-4----------------------|
D|----6-----6--6--6---6--6-6----4--4-----4-4-4-4----------------------|
A|--4-4-----4-------------------2--2-----2-2-2-2----------------------|
E|--------------------------------------------------------------------|


The verse is the same as the intro with some variations on the B major

Then the bridge is the following chords

e|--2---4---2---4---0-------------------------------------------------|
B|--2---4---2---4---0-------------------------------------------------|
G|--3---4---3---4---1-------------------------------------------------|
D|--2---6---2---6---2-------------------------------------------------|
A|--4---6---4---6---2-------------------------------------------------|
E|--2---4---2---4---0-------------------------------------------------|


After the bridge they play this progression which they use again as the outro

e|-----4---4--2—------------------------------------------------------|
B|--4--5---5--2—-4----------------------------------------------------|
G|--4--4---4--3--4----------------------------------------------------|
D|--4--6---6--2--4----------------------------------------------------|
A|--2--4---4--4--2----------------------------------------------------|
E|------------2-------------------------------------------------------|


Just some corrections to make playing it a little easier and truer to form, since I 

| /  slide up
| \  slide down
| h  hammer-on
| p  pull-off
| ~  vibrato
| +  harmonic
| x  Mute note
===============================================================================
            
Hard to play? Try these video lessons and learn fast. | Correct




comments powered by Disqus
↑ Back to top | Tablatures and chords are parodies/interpretations of the original songs. You may use it for private study, scholarship, research or language learning purposes only