» » »

Delta Spirit, Streetwalker Tabs (ver.2)

Artists:  A B C D E F G H I J K L M N O P Q R S T U V W X Y Z # 

Streetwalker Tabs (ver.2)

Delta Spirit Tabs
Rating:
5/5 (2 votes)
Streetwalker lessons Tabs too difficult? Try these video lessons and learn fast
                -------------------------------------------------------------------------------
                             STREETWALKER - Delta Spirit
-------------------------------------------------------------------------------

Tuning: Standard



An amazing song.  An amazing band.  An even more amazing message.

Intro:

e|-------------7--7---6--6-6------------------------------------------|
B|----9-----9--9--9---9--9-9----7--7----------------------------------|
G|----9-----9--9--9---9--9-9----8--8----------8---9-----9--9--8-------|
D|----9-----9-------------------9--9----9-----9---9h11--11-11-9-------|
A|------------------------------9--9----9h11-----9-------------9------|
E|--9-9-----9-------------------7--7----------------------------------|


e|-------------7--7---6--6-6------------------------------------------|
B|----9-----9--9--9---9--9-9----7--7-----7-7-7-7----------------------|
G|----9-----9--9--9---9--9-9----8--8-----8-8-8-8----------------------|
D|----9-----9-------------------9--9-----9-9-9-9----------------------|
A|------------------------------9--9-----9-9-9-9----------------------|
E|--9-9-----9-------------------7--7-----7-7-7-7----------------------|


The verse is the same as the intro with some variations on the B major

Then the bridge is the following chords

e|--2---4---2---4-----------------------------------------------------|
B|--2---4---2---4---9-------------------------------------------------|
G|--3---4---3---4---9-------------------------------------------------|
D|--2---6---2---6---9-------------------------------------------------|
A|--4---6---4---6---7-------------------------------------------------|
E|--2---4---2---4-----------------------------------------------------|


After the bridge they play this progression which they use again as the outro

e|--7---------2—-7----------------------------------------------------|
B|--7--9---9--2—-7----------------------------------------------------|
G|--8--9---9--3--8----------------------------------------------------|
D|--9--9---9--2--9----------------------------------------------------|
A|--9---------4--9----------------------------------------------------|
E|--7--9---9--2--7----------------------------------------------------|



| /  slide up
| \  slide down
| h  hammer-on
| p  pull-off
| ~  vibrato
| +  harmonic
| x  Mute note
===============================================================================
            

comments powered by Disqus
↑ Back to top | Delta Spirit Tabs for Streetwalker. Lyrics for acoustic guitar and electric guitar. Tablatures and chords are parodies/interpretations of the original songs. You may use it for private study, scholarship, research or language learning purposes only