>
 >
One Thing Remains 1

One Thing Remains 1 Guitar Tabs

Default - One Thing Remains 1 chords, tabs, tablatures, lyrics

Guitar lessons | Add/correct | Request | Top 50 tabs Artists:  A B C D E F G H I J K L M N O P Q R S T U V W X Y Z 0-9

One Thing Remains 1 Guitar Tabs – Default

CD, Sheet music, Poster

Do you like One Thing Remains 1? Share with your friends now
TabsTabs v2
One Thing Remains
Default
One Thing Remains (2005)

One Thing Remains:  written by Dallas Smith, Jeremy Hora, Dave Benedict, and
Danny Craig

GTR I - Drop C Tuning (d,A,F,C,G,C)
GTR II - Drop C Tuning (d,A,F,C,G,C)

Intro

  GTR I
d|-------------------------------------------------|
A|-------------------------------------------------|
F|-------------------------------------------------|
C|--5--5--4-----------5--5--4----------------------|
G|--5--5--5-----------5--5--5----------------------|
C|--0--0--0-----------0--0--0----------------------|

  GTR I
d|-------------------------------------------------|
A|-------------------------------------------------|
F|-----------------------------------------5-------|
C|--5--5--4-----------5--5--4--------------5-------|
G|--5--5--5-----------5--5--5-----x--x--x--3-------|
C|--0--0--0-----------0--0--0-----x--x--x----------|

Pre Verse

  GTR I
d|-------------------------------------------------|
A|-------------------------------------------------|
F|-------------------------------------------------|
C|--5--5--4-----------5--5--4----------------------|
G|--5--5--5-----------5--5--5----------------------|
C|--0--0--0-----------0--0--0----------------------|
 |
 |GTR II
d|-------------------------------------------------|
A|-------------------------------------------------|
F|-------------------------------------------------|
C|--5-----4-----0-----5-----4-----0-----0----------|
G|--5-----5-----0-----5-----5-----0-----0----------|
C|--0-----0-----0-----0-----0-----0-----0----------|

  GTR I
d|-------------------------------------------------|
A|-------------------------------------------------|
F|-----------------------------------------5-------|
C|--5--5--4-----------5--5--4--------------5-------|
G|--5--5--5-----------5--5--5-----x--x--x--3-------|
C|--0--0--0-----------0--0--0-----x--x--x----------|
 |
 |GTR II
d|-------------------------------------------------|
A|-------------------------------------------------|
F|-----------------------------------------5-------|
C|--5-----4-----0-----5-----4-----0-----0--5-------|
G|--5-----5-----0-----5-----5-----0-----0--3-------|
C|--0-----0-----0-----0-----0-----0-----0----------|

  GTR I
d|-------------------------------------------------|
A|-------------------------------------------------|
F|-12-12-11----------12-12-11----------------------|
C|--x--x--x-----0-----x--x--x-----0-----0----------|
G|-10-10--9-----0----10-10--9-----0-----0----------|
C|--------------0-----------------0-----0----------|
 |
 |GTR II
d|-------------------------------------------------|
A|-------------------------------------------------|
F|-------------------------------------------------|
C|--5-----4-----0-----5-----4-----0-----0----------|
G|--5-----5-----0-----5-----5-----0-----0----------|
C|--0-----0-----0-----0-----0-----0-----0----------|

  GTR I
d|-------------------------------------------------|
A|-------------------------------------------------|
F|-12-12-11----------12-12-11-------------17-------|
C|--x--x--x-----0-----x--x--x-----x--x--x--x-------|
G|-10-10--9-----0----10-10--9-----x--x--x-15-------|
C|--------------0-----------------x--x--x----------|
 |
 |GTR II
d|-------------------------------------------------|
A|-------------------------------------------------|
F|-----------------------------------------5-------|
C|--5-----4-----0-----5-----4-----0-----0--5-------|
G|--5-----5-----0-----5-----5-----0-----0--3-------|
C|--0-----0-----0-----0-----0-----0-----0----------|

Verse

  GTR I,II
d|-------------------------------------------------|
A|-------------------------------------------------|
F|-------------------------------------------------|
C|--5--5--4-----------5--5--4----------------------|
G|-------------------------------------------------|
C|-------------------------------------------------|

  GTR I,II
d|-------------------------------------------------|
A|-------------------------------------------------|
F|-------------------------------------------------|
C|--5--5--4-----------5--5--4----------------------|
G|-------------------------------------------------|
C|-------------------------------------------------|

  GTR I,II
d|-------------------------------------------------|
A|-------------------------------------------------|
F|-------------------------------------------------|
C|--5--5--4-----------5--5--4----------------------|
G|-------------------------------------------------|
C|-------------------------------------------------|

  GTR I,II
d|-------------------------------------------------|
A|-------------------------------------------------|
F|-----------------------------------------5-------|
C|--5--5--4-----------5--5--4--------------5-------|
G|--------------------------------x--x--x--3-------|
C|--------------------------------x--x--x----------|

Verse 2

  GTR I,II
d|-------------------------------------------------|
A|-------------------------------------------------|
F|-------------------------------------------------|
C|--5--5--4-----0-----5--5--4-----0-----0----------|
G|--------------0-----------------0-----0----------|
C|--------------0-----------------0-----0----------|

  GTR I,II
d|-------------------------------------------------|
A|-------------------------------------------------|
F|-----------------------------------------5-------|
C|--5--5--4-----0-----5--5--4-----0-----0--5-------|
G|--------------0-----------------0-----0--3-------|
C|--------------0-----------------0-----0----------|

  GTR I,II
d|-------------------------------------------------|
A|-------------------------------------------------|
F|-------------------------------------------------|
C|--5--5--4-----0-----5--5--4-----0-----0----------|
G|--------------0-----------------0-----0----------|
C|--------------0-----------------0-----0----------|

  GTR I,II
d|-------------------------------------------------|
A|-------------------------------------------------|
F|-------------------------------------------------|
C|--5--5--4-----0-----5--5--4-----0-----0-----0----|
G|--------------0-----------------0-----0-----0----|
C|--------------0-----------------0-----0-----0----|

Pre Chorus

  GTR I,II
d|-------------------------------------------------|
A|-------------------------------------------------|
F|-------------------------------------------------|
C|--5--------3--------0--------0--5--0--5--5-------|
G|--5--------3--------0--------0--3--0--3--3-------|
C|--5--------3--------0----------------------------|

  GTR I,II
d|-------------------------------------------------|
A|-------------------------------------------------|
F|-------------------------------------------------|
C|--5--------3--------0--------0--5--0--5--5-------|
G|--5--------3--------0--------0--3--0--3--3-------|
C|--5--------3--------0----------------------------|

  GTR I,II
d|-------------------------------------------------|
A|-------------------------------------------------|
F|-------------------------------------------------|
C|--5--------3--------0--------0--5--0--5--5-------|
G|--5--------3--------0--------0--3--0--3--3-------|
C|--5--------3--------0----------------------------|

  GTR I,II
d|-------------------------|
A|-------------------------|
F|-------------------------|
C|--5-----------3----------|
G|--5-----------3----------|
C|--5-----------3----------|

Chorus

  GTR I,II
d|-------------------------------------------------|
A|-------------------------------------------------|
F|--3--3--3--3--3--3--3--3--5--5--5--5--5--5--5--5-|
C|--3--3--3--3--3--3--3--3--5--5--5--5--5--5--5--5-|
G|--1--1--1--1--1--1--1--1--3--3--3--3--3--3--3--3-|
C|-------------------------------------------------|

  GTR I
d|-------------------------------------------------|
A|-------------------------------------------------|
F|-12-------11-------------------12----11----------|
C|--x--------x--------0-----------x-----x-----0----|
G|-10--------9--------0----------10-----9-----0----|
C|--------------------0-----------------------0----|
 |
 |GTR II
d|-------------------------------------------------|
A|-------------------------------------------------|
F|-------------------------------------------------|
C|--0--0--0--0--0--0--0--0--0--0--0--0--0--0--0--0-|
G|--0--0--0--0--0--0--0--0--0--0--0--0--0--0--0--0-|
C|--0--0--0--0--0--0--0--0--0--0--0--0--0--0--0--0-|

  GTR I,II
d|-------------------------------------------------|
A|-------------------------------------------------|
F|--3--3--3--3--3--3--3--3--5--5--5--5--5--5--5--5-|
C|--3--3--3--3--3--3--3--3--5--5--5--5--5--5--5--5-|
G|--1--1--1--1--1--1--1--1--3--3--3--3--3--3--3--3-|
C|-------------------------------------------------|

  GTR I
d|-------------------------------------------------|
A|-------------------------------------------------|
F|-12-------11-------------------12----11----------|
C|--x--------x--------0-----------x-----x-----0----|
G|-10--------9--------0----------10-----9-----0----|
C|--------------------0-----------------------0----|
 |
 |GTR II
d|-------------------------------------------------|
A|-------------------------------------------------|
F|-------------------------------------------------|
C|--0--0--0--0--0--0--0--0--0--0--0--0--0--0--0--0-|
G|--0--0--0--0--0--0--0--0--0--0--0--0--0--0--0--0-|
C|--0--0--0--0--0--0--0--0--0--0--0--0--0--0--0--0-|

  GTR I,II
d|-------------------------------------------------|
A|-------------------------------------------------|
F|--3--3--3--3--3--3--3--3--5--5--5--5--5--5--5--5-|
C|--3--3--3--3--3--3--3--3--5--5--5--5--5--5--5--5-|
G|--1--1--1--1--1--1--1--1--3--3--3--3--3--3--3--3-|
C|-------------------------------------------------|

  GTR I
d|-------------------------------------------------|
A|-------------------------------------------------|
F|-12-------11-------------------12----11----------|
C|--x--------x--------0-----------x-----x-----0----|
G|-10--------9--------0----------10-----9-----0----|
C|--------------------0-----------------------0----|
 |
 |GTR II
d|-------------------------------------------------|
A|-------------------------------------------------|
F|-------------------------------------------------|
C|--0--0--0--0--0--0--0--0--0--0--0--0--0--0--0--0-|
G|--0--0--0--0--0--0--0--0--0--0--0--0--0--0--0--0-|
C|--0--0--0--0--0--0--0--0--0--0--0--0--0--0--0--0-|

  GTR I,II
d|-------------------------------------------------|
A|-------------------------------------------------|
F|--3--3--3--3--3--3--3--3--5--5--5--5--5--5--5--5-|
C|--3--3--3--3--3--3--3--3--5--5--5--5--5--5--5--5-|
G|--1--1--1--1--1--1--1--1--3--3--3--3--3--3--3--3-|
C|-------------------------------------------------|

Pre Verse

  GTR I
d|-------------------------------------------------|
A|-------------------------------------------------|
F|-12-12-11----------12-12-11----------------------|
C|--x--x--x-----0-----x--x--x-----0-----0----------|
G|-10-10--9-----0----10-10--9-----0-----0----------|
C|--------------0-----------------0-----0----------|
 |
 |GTR II
d|-------------------------------------------------|
A|-------------------------------------------------|
F|-------------------------------------------------|
C|--5-----4-----0-----5-----4-----0-----0----------|
G|--5-----5-----0-----5-----5-----0-----0----------|
C|--0-----0-----0-----0-----0-----0-----0----------|

  GTR I
d|-------------------------------------------------|
A|-------------------------------------------------|
F|-12-12-11----------12-12-11-------------17-------|
C|--x--x--x-----0-----x--x--x-----x--x--x--x-------|
G|-10-10--9-----0----10-10--9-----x--x--x-15-------|
C|--------------0-----------------x--x--x----------|
 |
 |GTR II
d|-------------------------------------------------|
A|-------------------------------------------------|
F|-----------------------------------------5-------|
C|--5-----4-----0-----5-----4-----0-----0--5-------|
G|--5-----5-----0-----5-----5-----0-----0--3-------|
C|--0-----0-----0-----0-----0-----0-----0----------|

Verse

  GTR I,II
d|-------------------------------------------------|
A|-------------------------------------------------|
F|-------------------------------------------------|
C|--5--5--4-----------5--5--4----------------------|
G|-------------------------------------------------|
C|-------------------------------------------------|

  GTR I,II
d|-------------------------------------------------|
A|-------------------------------------------------|
F|-------------------------------------------------|
C|--5--5--4-----------5--5--4----------------------|
G|-------------------------------------------------|
C|-------------------------------------------------|

  GTR I,II
d|-------------------------------------------------|
A|-------------------------------------------------|
F|-------------------------------------------------|
C|--5--5--4-----------5--5--4----------------------|
G|-------------------------------------------------|
C|-------------------------------------------------|

  GTR I,II
d|-------------------------------------------------|
A|-------------------------------------------------|
F|-----------------------------------------5-------|
C|--5--5--4-----------5--5--4--------------5-------|
G|--------------------------------x--x--x--3-------|
C|--------------------------------x--x--x----------|

Verse 2

  GTR I,II
d|-------------------------------------------------|
A|-------------------------------------------------|
F|-------------------------------------------------|
C|--5--5--4-----0-----5--5--4-----0-----0----------|
G|--------------0-----------------0-----0----------|
C|--------------0-----------------0-----0----------|

  GTR I,II
d|-------------------------------------------------|
A|-------------------------------------------------|
F|-----------------------------------------5-------|
C|--5--5--4-----0-----5--5--4-----0-----0--5-------|
G|--------------0-----------------0-----0--3-------|
C|--------------0-----------------0-----0----------|

  GTR I,II
d|-------------------------------------------------|
A|-------------------------------------------------|
F|-------------------------------------------------|
C|--5--5--4-----0-----5--5--4-----0-----0----------|
G|--------------0-----------------0-----0----------|
C|--------------0-----------------0-----0----------|

  GTR I,II
d|-------------------------------------------------|
A|-------------------------------------------------|
F|-------------------------------------------------|
C|--5--5--4-----0-----5--5--4-----0-----0-----0----|
G|--------------0-----------------0-----0-----0----|
C|--------------0-----------------0-----0-----0----|

Pre Chorus

  GTR I,II
d|-------------------------------------------------|
A|-------------------------------------------------|
F|-------------------------------------------------|
C|--5--------3--------0--------0--5--0--5--5-------|
G|--5--------3--------0--------0--3--0--3--3-------|
C|--5--------3--------0----------------------------|

  GTR I,II
d|-------------------------------------------------|
A|-------------------------------------------------|
F|-------------------------------------------------|
C|--5--------3--------0--------0--5--0--5--5-------|
G|--5--------3--------0--------0--3--0--3--3-------|
C|--5--------3--------0----------------------------|

  GTR I,II
d|-------------------------------------------------|
A|-------------------------------------------------|
F|-------------------------------------------------|
C|--5--------3--------0--------0--5--0--5--5-------|
G|--5--------3--------0--------0--3--0--3--3-------|
C|--5--------3--------0----------------------------|

  GTR I,II
d|-------------------------|
A|-------------------------|
F|-------------------------|
C|--5-----------3----------|
G|--5-----------3----------|
C|--5-----------3----------|

Chorus

  GTR I,II
d|-------------------------------------------------|
A|-------------------------------------------------|
F|--3--3--3--3--3--3--3--3--5--5--5--5--5--5--5--5-|
C|--3--3--3--3--3--3--3--3--5--5--5--5--5--5--5--5-|
G|--1--1--1--1--1--1--1--1--3--3--3--3--3--3--3--3-|
C|-------------------------------------------------|

  GTR I
d|-------------------------------------------------|
A|-------------------------------------------------|
F|-12-------11-------------------12----11----------|
C|--x--------x--------0-----------x-----x-----0----|
G|-10--------9--------0----------10-----9-----0----|
C|--------------------0-----------------------0----|
 |
 |GTR II
d|-------------------------------------------------|
A|-------------------------------------------------|
F|-------------------------------------------------|
C|--0--0--0--0--0--0--0--0--0--0--0--0--0--0--0--0-|
G|--0--0--0--0--0--0--0--0--0--0--0--0--0--0--0--0-|
C|--0--0--0--0--0--0--0--0--0--0--0--0--0--0--0--0-|

  GTR I,II
d|-------------------------------------------------|
A|-------------------------------------------------|
F|--3--3--3--3--3--3--3--3--5--5--5--5--5--5--5--5-|
C|--3--3--3--3--3--3--3--3--5--5--5--5--5--5--5--5-|
G|--1--1--1--1--1--1--1--1--3--3--3--3--3--3--3--3-|
C|-------------------------------------------------|

  GTR I
d|-------------------------------------------------|
A|-------------------------------------------------|
F|-12-------11-------------------12----11----------|
C|--x--------x--------0-----------x-----x-----0----|
G|-10--------9--------0----------10-----9-----0----|
C|--------------------0-----------------------0----|
 |
 |GTR II
d|-------------------------------------------------|
A|-------------------------------------------------|
F|-------------------------------------------------|
C|--0--0--0--0--0--0--0--0--0--0--0--0--0--0--0--0-|
G|--0--0--0--0--0--0--0--0--0--0--0--0--0--0--0--0-|
C|--0--0--0--0--0--0--0--0--0--0--0--0--0--0--0--0-|

  GTR I,II
d|-------------------------------------------------|
A|-------------------------------------------------|
F|--3--3--3--3--3--3--3--3--5--5--5--5--5--5--5--5-|
C|--3--3--3--3--3--3--3--3--5--5--5--5--5--5--5--5-|
G|--1--1--1--1--1--1--1--1--3--3--3--3--3--3--3--3-|
C|-------------------------------------------------|

  GTR I
d|-------------------------------------------------|
A|-------------------------------------------------|
F|-12-------11-------------------12----11----------|
C|--x--------x--------0-----------x-----x-----0----|
G|-10--------9--------0----------10-----9-----0----|
C|--------------------0-----------------------0----|
 |
 |GTR II
d|-------------------------------------------------|
A|-------------------------------------------------|
F|-------------------------------------------------|
C|--0--0--0--0--0--0--0--0--0--0--0--0--0--0--0--0-|
G|--0--0--0--0--0--0--0--0--0--0--0--0--0--0--0--0-|
C|--0--0--0--0--0--0--0--0--0--0--0--0--0--0--0--0-|

  GTR I,II
d|-------------------------------------------------|
A|-------------------------------------------------|
F|--3--3--3--3--3--3--3--3--5--5--5--5--5--5--5--5-|
C|--3--3--3--3--3--3--3--3--5--5--5--5--5--5--5--5-|
G|--1--1--1--1--1--1--1--1--3--3--3--3--3--3--3--3-|
C|-------------------------------------------------|

Bridge

  GTR I
d|-------------------------------------------------|
A|-------------------------------------------------|
F|-------------------------------------------------|
C|--------------------------------------------3----|
G|--3h-5-----5-----5--3h-5-----5-----5--3h-5----h5-|
C|-------------------------------------------------|

  GTR I
d|-------------------------------------------------|
A|-------------------------------------------------|
F|-------------------------------------------------|
C|-------------------------------------------------|
G|--3h-5-----5-----5--3h-5-----5-----5-------------|
C|--------------------------------------3~----0----|

  GTR I
d|-------------------------------------------------|
A|-------------------------------------------------|
F|-------------------------------------------------|
C|--------------------------------------------3----|
G|--3h-5-----5-----5--3h-5-----5-----5--3h-5----h5-|
C|-------------------------------------------------|

  GTR I
d|-------------------------------------------------|
A|-------------------------------------------------|
F|-------------------------------------------------|
C|-------------------------------------------------|
G|--3h-5-----5-----5--3h-5-----5-----5-------------|
C|--------------------------------------3~----0----|
 |
 |GTR II
d|-------------------------------------------------|
A|-------------------------------------------------|
F|-------------------------------------------------|
C|-------------------------------------------------|
G|-------------------------------------------------|
C|--------------------------------------3~----0----|

  GTR I,II
d|-------------------------------------------------|
A|-------------------------------------------------|
F|-------------------------------------------------|
C|--------------------------------------------3----|
G|--3h-5-----5-----5--3h-5-----5-----5--3h-5----h5-|
C|-------------------------------------------------|

  GTR I,II
d|-------------------------------------------------|
A|-------------------------------------------------|
F|-------------------------------------------------|
C|-------------------------------------------------|
G|--3h-5-----5-----5--3h-5-----5-----5-------------|
C|--------------------------------------3~----0----|

  GTR I,II
d|-------------------------------------------------|
A|-------------------------------------------------|
F|-------------------------------------------------|
C|--------------------------------------------3----|
G|--3h-5-----5-----5--3h-5-----5-----5--3h-5----h5-|
C|-------------------------------------------------|

  GTR I,II
d|-------------------------------------------------|
A|-------------------------------------------------|
F|-------------------------------------------------|
C|-------------------------------------------------|
G|--3h-5-----5-----5--3h-5-----5-----5-------------|
C|--------------------------------------3~----0----|

  GTR I,II
d|-------------------------------------|-------------------------------------|
A|-------------------------------------|-------------------------------------|
F|--5/-7--7--7--7--7--7/-9--9--9--9--9-|--9/10-10-10-10-10-10/12-12-12-12-12-|
C|--x--x--x--x--x--x--x--x--x--x--x--x-|--x--x--x--x--x--x--x--x--x--x--x--x-|
G|--3/-5--5--5--5--5--5/-7--7--7--7--7-|--7/-8--8--8--8--8--8/10-10-10-10-10-|
C|-------------------------------------|-------------------------------------|

  GTR I,II
d|-------------------------------------|-------------------------------------|
A|-------------------------------------|-------------------------------------|
F|--5/-7--7--7--7--7--7/-9--9--9--9--9-|--9/10-10-10-10-10-10/12-12-12-12-12-|
C|--x--x--x--x--x--x--x--x--x--x--x--x-|--x--x--x--x--x--x--x--x--x--x--x--x-|
G|--3/-5--5--5--5--5--5/-7--7--7--7--7-|--7/-8--8--8--8--8--8/10-10-10-10-10-|
C|-------------------------------------|-------------------------------------|

  GTR I,II
d|-------------------------------------|-------------------------------------|
A|-------------------------------------|-------------------------------------|
F|--5/-7--7--7--7--7--7/-9--9--9--9--9-|--9/10-10-10-10-10-10/12-12-12-12-12-|
C|--x--x--x--x--x--x--x--x--x--x--x--x-|--x--x--x--x--x--x--x--x--x--x--x--x-|
G|--3/-5--5--5--5--5--5/-7--7--7--7--7-|--7/-8--8--8--8--8--8/10-10-10-10-10-|
C|-------------------------------------|-------------------------------------|

  GTR I,II
d|-------------------------------------|-------------------------------------|
A|-------------------------------------|-------------------------------------|
F|-12/14-14-14-14-14-14/15-15-15-15-15-|-15/18-18-18-18-18-18-18-18-18-18-18-|
C|--x--x--x--x--x--x--x--x--x--x--x--x-|--x--x--x--x--x--x--x--x--x--x--x--x-|
G|-10/12-12-12-12-12-12/13-13-13-13-13-|-13/16-16-16-16-16-16-16-16-16-16-16-|
C|-------------------------------------|-------------------------------------|

  GTR I,II
d|-------------------------------------|
A|-------------------------------------|
F|-18-18-18-18-18-18-18-18-18-18-18-18-|
C|--x--x--x--x--x--x--x--x--x--x--x--x-|
G|-16-16-16-16-16-16-16-16-16-16-16-16-|
C|-------------------------------------|

Chorus

  GTR I,II
d|-------------------------------------------------|
A|-------------------------------------------------|
F|--3--3--3--3--3--3--3--3--5--5--5--5--5--5--5--5-|
C|--3--3--3--3--3--3--3--3--5--5--5--5--5--5--5--5-|
G|--1--1--1--1--1--1--1--1--3--3--3--3--3--3--3--3-|
C|-------------------------------------------------|

  GTR I
d|-------------------------------------------------|
A|-------------------------------------------------|
F|-12-------11-------------------12----11----------|
C|--x--------x--------0-----------x-----x-----0----|
G|-10--------9--------0----------10-----9-----0----|
C|--------------------0-----------------------0----|
 |
 |GTR II
d|-------------------------------------------------|
A|-------------------------------------------------|
F|-------------------------------------------------|
C|--0--0--0--0--0--0--0--0--0--0--0--0--0--0--0--0-|
G|--0--0--0--0--0--0--0--0--0--0--0--0--0--0--0--0-|
C|--0--0--0--0--0--0--0--0--0--0--0--0--0--0--0--0-|

  GTR I,II
d|-------------------------------------------------|
A|-------------------------------------------------|
F|--3--3--3--3--3--3--3--3--5--5--5--5--5--5--5--5-|
C|--3--3--3--3--3--3--3--3--5--5--5--5--5--5--5--5-|
G|--1--1--1--1--1--1--1--1--3--3--3--3--3--3--3--3-|
C|-------------------------------------------------|

  GTR I
d|-------------------------------------------------|
A|-------------------------------------------------|
F|-12-------11-------------------12----11----------|
C|--x--------x--------0-----------x-----x-----0----|
G|-10--------9--------0----------10-----9-----0----|
C|--------------------0-----------------------0----|
 |
 |GTR II
d|-------------------------------------------------|
A|-------------------------------------------------|
F|-------------------------------------------------|
C|--0--0--0--0--0--0--0--0--0--0--0--0--0--0--0--0-|
G|--0--0--0--0--0--0--0--0--0--0--0--0--0--0--0--0-|
C|--0--0--0--0--0--0--0--0--0--0--0--0--0--0--0--0-|

  GTR I,II
d|-------------------------------------------------|
A|-------------------------------------------------|
F|--3--3--3--3--3--3--3--3--5--5--5--5--5--5--5--5-|
C|--3--3--3--3--3--3--3--3--5--5--5--5--5--5--5--5-|
G|--1--1--1--1--1--1--1--1--3--3--3--3--3--3--3--3-|
C|-------------------------------------------------|

  GTR I
d|-------------------------------------------------|
A|-------------------------------------------------|
F|-12-------11-------------------12----11----------|
C|--x--------x--------0-----------x-----x-----0----|
G|-10--------9--------0----------10-----9-----0----|
C|--------------------0-----------------------0----|
 |
 |GTR II
d|-------------------------------------------------|
A|-------------------------------------------------|
F|-------------------------------------------------|
C|--0--0--0--0--0--0--0--0--0--0--0--0--0--0--0--0-|
G|--0--0--0--0--0--0--0--0--0--0--0--0--0--0--0--0-|
C|--0--0--0--0--0--0--0--0--0--0--0--0--0--0--0--0-|

  GTR I,II
d|-------------------------------------------------|
A|-------------------------------------------------|
F|--3--3--3--3--3--3--3--3--5--5--5--5--5--5--5--5-|
C|--3--3--3--3--3--3--3--3--5--5--5--5--5--5--5--5-|
G|--1--1--1--1--1--1--1--1--3--3--3--3--3--3--3--3-|
C|-------------------------------------------------|

Outro

  GTR I
d|-------------------------------------------------|
A|-------------------------------------------------|
F|-12-12-11----------12-12-11----------------------|
C|--x--x--x-----0-----x--x--x-----0-----0----------|
G|-10-10--9-----0----10-10--9-----0-----0----------|
C|--------------0-----------------0-----0----------|
 |
 |GTR II
d|-------------------------------------------------|
A|-------------------------------------------------|
F|-------------------------------------------------|
C|--5-----4-----0-----5-----4-----0-----0----------|
G|--5-----5-----0-----5-----5-----0-----0----------|
C|--0-----0-----0-----0-----0-----0-----0----------|

  GTR I
d|-------------------------------------------------|
A|-------------------------------------------------|
F|-12-12-11----------12-12-11-------------17-------|
C|--x--x--x-----0-----x--x--x-----x--x--x--x-------|
G|-10-10--9-----0----10-10--9-----x--x--x-15-------|
C|--------------0-----------------x--x--x----------|
 |
 |GTR II
d|-------------------------------------------------|
A|-------------------------------------------------|
F|-----------------------------------------5-------|
C|--5-----4-----0-----5-----4-----0-----0--5-------|
G|--5-----5-----0-----5-----5-----0-----0--3-------|
C|--0-----0-----0-----0-----0-----0-----0----------|

  GTR I
d|-------------------------------------------------|
A|-------------------------------------------------|
F|-12-12-11----------12-12-11----------------------|
C|--x--x--x-----0-----x--x--x-----0-----0----------|
G|-10-10--9-----0----10-10--9-----0-----0----------|
C|--------------0-----------------0-----0----------|
 |
 |GTR II
d|-------------------------------------------------|
A|-------------------------------------------------|
F|-------------------------------------------------|
C|--5-----4-----0-----5-----4-----0-----0----------|
G|--5-----5-----0-----5-----5-----0-----0----------|
C|--0-----0-----0-----0-----0-----0-----0----------|

  GTR I
d|-------------------------------------------------|
A|-------------------------------------------------|
F|-12-12-11----------12-12-11-------------17-------|
C|--x--x--x-----0-----x--x--x-----x--x--x--x-------|
G|-10-10--9-----0----10-10--9-----x--x--x-15-------|
C|--------------0-----------------x--x--x----------|
 |
 |GTR II
d|-------------------------------------------------|
A|-------------------------------------------------|
F|-----------------------------------------5-------|
C|--5-----4-----0-----5-----4-----0-----0--5-------|
G|--5-----5-----0-----5-----5-----0-----0--3-------|
C|--0-----0-----0-----0-----0-----0-----0----------|


| b  bend
| r  release bend
|PH. pinch harmonic
|fbk feedback
| .  palm-mute
| /  slide up
| \  slide down
| h  hammer-on
| p  pull-off
| ~  vibrato
| +  harmonic
| x  Mute note
===============================================================================





Comments


Popular Default tabs & chords
Deny 1 Bass Tabs
Faded Bass Tabs
It Only Hurts Chords
Count On Me 3 Tabs
Deny 1 Tabs
I Can't Win 1 Tabs
Let You Down Tabs
Live A Live Tabs
All Over Me Ukulele
Memory Will Never Die Ukulele


Song lyrics



↑ Back to top | Tablatures and chords are parodies/interpretations of the original songs. You may use it for private study, scholarship, research or language learning purposes only
© 2014 AZChords.com Contact us | Privacy policy | DMCA | Add/correct tabs | Request tabs | Top 50 tabs