>
 >
One Thing Remains

One Thing Remains Guitar Tabs

Default - One Thing Remains chords, tabs, tablatures, lyrics

Guitar lessons | Add/correct | Request | Top 50 tabs Artists:  A B C D E F G H I J K L M N O P Q R S T U V W X Y Z 0-9

One Thing Remains Guitar Tabs – Default

CD, Sheet music, Poster

Do you like One Thing Remains? Share with your friends now
TabsTabs v2
"One Thing Remains" by Default
(Tab by Rockcru)

Intro:

   Csus  C     Csus  C	     Csus  C   Csus C	     Bb
E--x--x--x-----x--x--x------x--x--x---x--x--x--------x----|(2 times)
B--x--x--x-----x--x--x------x--x--x---x--x-x--------x----|
G--0--0--0-----0--0--0------0--0--0---0--0--0----x-x-3----|
D--3--3--2-----3--3--2------3--3--2---3--3-2----x-x-3----|
A-3--3--3-----3--3--3------3--3--3---3--3-3----x-x-1----|
C--0--0--0-----0--0--0------0--0--0---0--0--0--------x----|

Second Guitar comes in on second time around    
E--------------------------------------------------------|
B--------------------------------------------------8\11--|
G-10-10--9----10-10--9------10-10-9---10-10-9------------|    
D--------------------------------------------------------|
A-------------------------------------------------------|
C--------------------------------------------------------|

Verse: You don't know it all         I've got you figured out
E--------------------------------------------------------|
B--------------------------------------------------------|
G--------------------------------------------------------|
D--3--3--2----3--3--2-------3--3--2----33-2-------------|
A-------------------------------------------------------|
C--------------------------------------------------------|

Verse: So proud, walking tall    Is what you're all about
E--------------------------------------------------------|
B--------------------------------------------------------|
G------------------------------------------------x-x---3-|
D--3--3--2----3--3--2-------3--3--2----33-2-----x-x---3-|
A-----------------------------------------------x-x---1-|
C--------------------------------------------------------|

Verse: What you are is what you make   Don't know how to give and take
E--------------------------------------------------------|
B--------------------------------------------------------|
G------------------------------------------------x-x---3-|
D--3--3--2----3--3--2-------3--3--2----33-2-----x-x---3-|
A-----------------------------------------------x-x---1-|
C--------------------------------------------------------|
Second Guitar starts playing intro chords behind this.

Verse: Blame it all on someone else    Everyone except yourself
E--------------------------------------------------------|
B--------------------------------------------------------|
G------------------------------------------------x-x---3-|
D--3--3--2----3--3--2-------3--3--2----33-2-----x-x---3-|
A-----------------------------------------------x-x---1-|
C--------------------------------------------------------|


    One step forward               never seems to get you nowhere
E-------------------------------------------------------|
B-------------------------------------------------------|
G---------------33333----------------------333333-------|
D--3--1--2------22222---------3--1--2------222222-------|
A-3--1--3------33333---------3--1--3------333333-------|
C--5--3--0--------------------5--3--0-------------------|

Sinking faster                             In you go
E------------------------------------------|
B------------------------------------------|
G---------------33333----------------------|
D--3--1--2------22222---------3--1--2------|
A-3--1--3------33333---------3--1--3------|
C--5--3--0--------------------5--3--0------|

Chorus:
You want to save they day
E--------------------------------------|
B--------------------------------------|
G--1--------3-------0-0--0-0-0-0-------|
D--1--------3-------3-2--3-2-3-2-------|
A-3--------1-------3-3--3-3-3-3-------|
C--3--------x-------0-0--0-0-0-0-------|
(Repeat above for the remaining lines of the chorus)

So you grab on the reins and run in circles

You're going to crash and drag the world down with you

Only one thing remains

Repeat above for following verse and chorus:

Hey man be aware
Better watch yourself today
I know he don't care
about you anyway

You can run but you can't hide
All the lies they won't forget
Never will get over it

Thinking backwards
How the hell did this get started
Drowning faster
Down you go

You want to save they day
so you grab on the reins and run in circles
You're going to crash and drag the world down with you
Only one thing remains

Guitar Solo/Break  

E---------------------------------------------------------|
B---------------------------------------------------------| (4X)
G---------------------------------------------------------|
D-----------------------1--------------------------------|
A--1h3-3331h3-333---1h3-31h3-333-1h3-333---------------|
C-------------------------------------------3p0-----------|

 Each octave below is strummed 5 times (8th note triplet plus two 8th notes)   
E----------------------------------------------------|
B----------------------------------------------------| (3X)
G3/5-5-5-5---5/7-7-7-7---7/8--8-8-8--8/10-10-10-10-|
Dx-x-x-x-x---x---x-x-x----x---x-x-x---xxxxx---------|
A1/3-3-3-3---3/5-5-5-5---5/6-6-6-6---6/8--8-8--8-|
C----------------------------------------------------|

Followed by:
E----------------------------------------------------|
B----------------------------------------------------| 
G10/12-12-12-12---12/1313-13-13---13/16-16-16-16---|
D--x---x--x---x----x----x-x--x-----x-----x--x--x---|
A-8/10-10-10-10---10/11-11-11-11---11/14-14-14-14---|
C----------------------------------------------------|

Repeat Chorus





Comments


Popular Default tabs & chords
Count On Me Bass Tabs
Live A Lie Bass Tabs
Slow Me Down 2 Bass Tabs
Somewhere Bass Tabs
Throw It All Away 2 Bass Tabs
Live A Lie Chords
Caught In The Moment Tabs
It Only Hurts Tabs
Memory Will Never Die Tabs
It Only Hurts Ukulele


Song lyrics



↑ Back to top | Tablatures and chords are parodies/interpretations of the original songs. You may use it for private study, scholarship, research or language learning purposes only
© 2014 AZChords.com Contact us | Privacy policy | DMCA | Add/correct tabs | Request tabs | Top 50 tabs