» » »

Deadeye Dick, New Age Girl Bass tabs (ver.1)

Artists:  A B C D E F G H I J K L M N O P Q R S T U V W X Y Z # 

New Age Girl Bass tabs (ver.1)

Deadeye Dick Tabs
 Rating:
3.3/5 (6 votes)
New Age Girl lessons Tabs too difficult? Try these video lessons and learn fast
                ++++++++++++++++
++New Age Girl++
++++++++++++++++


Verse:
D ----------------------------------|
G ----------------------------------|
A --0-3h4----------2p0--------------|
E --------2h3p2h3-------------------|

Chorus:
(play this once)
D ----------------------------------|
G ----------------------------------|
A -------------1~---0~--------------|
E --0~---1~-------------------------|

(play for rest of chorus)
D ----------------------------------|
G ----------------------------------|
A ----3-3--3------------------------|
E --2-------2-2---------------------|

*im not to sure what the run is...*

Guitar Solo:
D ----------------------------------|
G ----------------------------------|
A --0-3h4----------2p0--------------|
E --------2h3p2h3-------------------|

Ending:
D ----------------------------------|
G ----------------------------------|
A --0-3h4----------2p0--------------|
E --------2h3p2h3-------------------|

D ----------------------------------|
G ----------------------------------|
A --0-3h4-------2-------2-------2p0-|
E --------2h3p2---2h3p2---2h3p2-----|
            
Submit corrections

comments powered by Disqus
↑ Back to top | Deadeye Dick Bass for New Age Girl. Lyrics for acoustic guitar and electric guitar. Tablatures and chords are parodies/interpretations of the original songs. You may use it for private study, scholarship, research or language learning purposes only