» » »

Deadeye Dick, New Age Girl Tabs (ver.2)

Artists:  A B C D E F G H I J K L M N O P Q R S T U V W X Y Z # 

New Age Girl Tabs (ver.2)

Deadeye Dick Tabs
 Rating:
3.3/5 (12 votes)
New Age Girl lessons Tabs too difficult? Try these video lessons and learn fast
1
                DeadEye Dick – New Age Girl

Tuning: DADGBe

Talking Intro Deal
e|-----------------------------------------------------------------------|
B|-----------------------------------------------------------------------|
G|-7~~~------------------------------------------------------------------|
D|-7~~~------------- Let Ring -------------------------------------------|
A|-7~~~------------------------------------------------------------------|
D|-7~~~------------------------------------------------------------------|

Actual Intro
e|--------------------------------------------------------------------------|
B|--------------------------------------------------------------------------|
G|-----6-7---6-------5------------------------------------------------------|
D|-7---6-7---6-5-4-5-5--7---------------------------------------------------|
A|-7---4-5---4-5-4-5-3--7---------------------------------------------------|
D|-7-----------5-4-5----7---------------------------------------------------|

Verse
e|---------------------------------------------------------------------|
B|---------------------------------------------------------------------|
G|-------6-7-7-7-------5-5-5---------------7---------------------------|
D|-7-7-7-6-7-7-7-5-5-5-5-5-5-----7-------7---7--------x2---------------|
A|-7-7-7-4-5-5-5-5-5-5-3-3-3-----7-----7--------7----------------------|
D|-7-7-7---------5-5-5-----------5---5-------------5-------------------|
Pm . . . . . . . . . . . . .

Pre-Chorus
e|-------------------------------------|
B|-------------------------------------|
G|-------7-----------------------------|
D|-----7---7---------------------------|
A|-------------------------------------|
D|---7-------7-------------------------|


Chorus
e|----------------------------------------------------------------------|
B|----------------------------------------------------------------------|
G|-9-9-x-----------7-7-x------------------------------------------------|
D|-9-9-x---7-7-x---7-7-x---7-7-x----------------------------------------|
A|-7-7-x---7-7-x---5-5-x---7-7-x----------------------------------------|
D|---------7-7-x-----------7-7-x----------------------------------------|

"she loves me so she hates to be alone"
e|-------------------------------------------------------------------------|
B|-------------------------------------------------------------------------|
G|-9~----------------------------------------------------------------------|
D|-9~--------------------3~------------------------------7-----------------|
A|-7~--------------------3~------------------------------7-----------------|
D|-----------------------3~------------------------------7-------------14/-|

Bridge
e|-----------------------------------------------------------------------|
B|-----------------------------------------------------------------------|
G|--------5---------7----------------------------------------------------|
D|--3-----5----5----7----------------------------------------------------|
A|--3-----3----5----5----------------------------------------------------|
D|--3----------5---------------------------------------------------------|



Play this during the solo. I don’t know the solo is but this is what the rhythm guitar is doing.

e|--------------------------------------------------------------------------|
B|--------------------------------------------------------------------------|
G|-----6-7---6-------5------------------------------------------------------|
D|-7---6-7---6-5-4-5-5--7---------------------------------------------------|
A|-7---4-5---4-5-4-5-3--7---------------------------------------------------|
D|-7-----------5-4-5----7---------------------------------------------------|
            
Submit corrections

comments powered by Disqus
↑ Back to top | Deadeye Dick Tabs for New Age Girl. Lyrics for acoustic guitar and electric guitar. 1 Tablatures and chords are parodies/interpretations of the original songs. You may use it for private study, scholarship, research or language learning purposes only