» » »

Where I Stand Bass tabs (ver.1)

Artists:  A B C D E F G H I J K L M N O P Q R S T U V W X Y Z # 

Where I Stand Bass tabs (ver.1)

Days Of The New
Rating:
0/5 (0 votes)

Hard to play? Try these video lessons and learn fast.
                -------------------------------------------------------------------------------
                             From the album Days of the New
-------------------------------------------------------------------------------


Tuning: Drop Db, tab is relative to that

The timing and structure are not 100% accurate, this is an outline, you need
to listen to where the parts go and proper timing.  Where you see the octave
in brackets is where he alternates between them, listen for which comes when.

The tab is pretty much correct except for the pre-chorus end.  I am not 100% 
sure on it but it is close.  I noted the part.

Bass @ 0:33
G|------------------------------------------|--------------------------------|
D|-----------------------------------------:|--------------------------------|
A|--------8---3-3---8---5-5---8---3-3---8--:|--------------------------------|
E|--0-0-------------------------------------|--0-----------------------------|

Verse / Solo       This part repeats 3 times with the ending alternating the F
G|----------------|-----------------x3|--------------------------------------|
D|----------------|------------------:|--------------------------------------|
A|------3h5--3--8-|--5--3------------:|--3--(8)------------------------------|
E|--3h5-----------|--------5--3-5-3---|------3-------------------------------|
  ^ This only starts the riff.  You should hear it.

Pre-Chorus                      I am not sure if I am correct here
G|---------------------------------------------------------------------------|
D|---------------------------------------------------------------------------|
A|--5-5-5-----8-8-8-----3-3-3-----3------------------------------------------|
E|---------------------------------5-5---5-3-3---3-5-0-----------------------|

Chorus
G|---------------------------------------------------------------------------|
D|---------------------------------------------------------------------------|
A|--5-5-5-----8-8-8-----3-3-3-----8-8-8--------------------------------------|
E|---------------------------------------------------------------------------|

Outro
G|---------------------------------------------------------------------------|
D|---------------------------------------------------------------------------|
A|-5-5-5------8-8-8-----3-3-3------------------------------------------------|
E|-----------(3)-------------------5-5-5-------------------------------------|
            
Hard to play? Try these video lessons and learn fast. | Correct




comments powered by Disqus
↑ Back to top | Tablatures and chords are parodies/interpretations of the original songs. You may use it for private study, scholarship, research or language learning purposes only