» » »

Touch Peel And Stand Tabs (ver.1)

Artists:  A B C D E F G H I J K L M N O P Q R S T U V W X Y Z # 

Touch Peel And Stand Tabs (ver.1)

Days Of The New
Rating:
0/5 (0 votes)

Hard to play? Try these video lessons and learn fast.
                this is how i play it unaccompanied. it may be off, but thats because i dont have
another guitarist, bassist or drummer, so it makes up for the lack of them, rather
than singing over silence. also, the solo is off, but i just improvise around what
is tabbed, not play it note for note. i find its better to improv than play a solo
note for note




TOUCH, PEEL, AND STAND-DAYS OF THE NEW

Drop-D

INTRO x2
-------------------------------------------------------|
-------------------------------------------------------|
-------------------------------------------------------|
-5/7-7-7----5/7-7-7------------------------------------|
-3/5-5-5----3/5-5-5-0—-3/5-5--5—-0-3/5-5--5--5—-5-0----|
---------0----------0—-3/5-5--5—-0-3/5-5--5--5—-5-0----|

-----------------------------------------------------------|
-----------------------------------------------------------|
-----------------------------------------------------------|
-----------------------------------------------------------|
-3-3-3--0-3----3-3-3--3-0—-3/5-5-5-5--3-0----0-0-0-5-3-0---|
-3-3-3--0-3----3-3-3--3-0—-3/5-5-5-5--3-0----0-0-0-5-3-0---|

2nd time only
---------------------------|
---------------------------|
---------------------------|
---------------------------|
-0-0-0-5-3-0-----X-X-X-X---|
-0-0-0-5-3-0---------------|X-X-X-X—

VERSE 1
---------   ---------   ------------------   ------------------   ---------|
-A-------   -B-------   -C----------------   -D----------------   -E-------|
---------   ---------   ------------------   ------------------   ---------|
---------   -5/7-X-X-   ------------------   -5/7-7-7-X-X-X-X--   ---------|
-3/5-X-X-   -3/5-X-X-   -3/5-5-5-X-X-X-X--   -3/5-5-5-X-X-X-X--   -X--X--X-|
-3/5-X-X-   ---------   -3/5-5-5-X-X-X-X--   ------------------   -X--X--X-|

A   Since I know how low to go
B   I won't let it show
A   Wont you touch me touch me
B   I won't let it go
C   And now I stand
D   And I peel for more
C   Wont you touch me touch me
B   I wont (E) let it go

CHORUS
Play throughout (about once every 2 lines)
-------------------------------------------------------|
-------------------------------------------------------|
-------------------------------------------------------|
-5/7-7-7----5/7-7-7------------------------------------|
-3/5-5-5----3/5-5-5-0—-3/5-5--5—-0-3/5-5--5--5—-5-0----|
---------0----------0—-3/5-5--5—-0-3/5-5--5--5—-5-0----|

-----------------------------------------------------------|
-----------------------------------------------------------|
-----------------------------------------------------------|
-----------------------------------------------------------|
-3-3-3--0-3----3-3-3--3-0—-3/5-5-5-5--3-0----0-0-0-5-3-0---|
-3-3-3--0-3----3-3-3--3-0—-3/5-5-5-5--3-0----0-0-0-5-3-0---|
Yes I've finally found the reason
I don't need an excuse
I've got this time on my hands
You are the one to abuse
One to abuse        mm mm

------------|
------------|
------------|
------------|
-X--X--X--X-|
-X--X--X--X-|

VERSE 2
A   You're always talking back to me
B   You won't let it be
A   Won't you touch me touch me
B   It never bothered you before
C   Now I stand
D   And I peel for more
C   Won't you touch me touch me
D   I won't (E) let it go

CHORUS
Play main riff throughout (about once every 2 lines)

Yes I've finally found the reason
I don't need an excuse
I've got this time on my hands
You are the one to abuse
Yes I've finally found the reason
I don't need an excuse
I've got this time on my hands
You are the one to abuse
The one to abuse

        Ohhh
------------|
------------|
------------|
------------|
-X--X--X--X-|
-X--X--X--X-|

INTERLUDE x7
with slight variation
-------------------------|
-------------------------|
-------------------------|
--5/7-7-7-X--------------|
--3/5-5-5-X—-3/5-5-5-X---|
-------------3/5-5-5-X---|
yeah yeah
ohhh
yeah yeah
yeah

SOLO
------------------------------.--.-----12-10-10-------------|
-------10------------------.-13-10-13b----------12\---------|
-5//12----12-14\--X-X-X-X-12------------------------X-X-X-X-|
-3//--------------X-X-X-X---------------------------X-X-X-X-|
------------------------------------------------------------|
------------------------------------------------------------|

--------------------------------------------------8p5-5-8p5-|
----------------------------------.--.—("mm now"------------|
-12-11-13b-13-13-12\--7/9-9-9-9--10--9--8-------------------|
----------------------5/7-7-7-7---8--7--6-------------------|
------------------------------------------------------------|
------------------------------------------------------------|
-5-8p5-5-8p5-5-9p5-5-9p5-5-9p5-5-8p5-5-9p5-5-8p5-5-9p5-5----|
------------------------------------------------------------|
----------------with variation------------------------------|
------------------------------------------------------------|
------------------------------------------------------------|
------------------------------------------------------------|

---------------------------5678------||--------------------|
---------------------------5678------||--chuck berry-------|
--improv till end of solo--567-------||---style bends------|
---------------------------567-------||----x4--------------|
---------------------------567-------||--------------------|
---------------------------5678------||--------------------|
BRIDGE
X      0      0.     **
--------------------------------------------|
--------------------------------------------|
--------------------------------------------|
--------------------------------------------|
-X------0-----pm------0-3/5--0-3/5--0-3/5---|
-X------0------0------0-3/5--0-3/5--0-3/5---|

Yes I've finally found the reason
  X          X       X         X
I don't need an excuse
 X     0     X       X
I've got this time on my hands
 0          0     0.   0.   0.
You are the one to abuse
0.    0.    0.    **

CHORUS
Play msin riff throughout

Yes I've finally found the reason
I don't need an excuse
I've got this time on my hands
You are the one to abuse
Yes I've finally found the reason
I don't need an excuse
I've got this time on my hands
  Mmm  owww
I've got this time on my hands
I've got this time on my hands
I've got this
You are the one to abuse
I've got this
I've got this
I've got this time on my hands
I've got this
I've got this
You are the one to abuse
One to abuse
The to abuse

OUTRO x5, x1 slower
-------------------------|
-------------------------|
-------------------------|
--5/7-7-7-X--------------|
--3/5-5-5-X—-3/5-5-5-X---|
-------------3/5-5-5-X---|
Ohh
Mmm yeah
Yeah yeah

---------------|
---------------|
---------------|
----0-2--------|
-0h2-----------|
---------------|



you son of a b**ch!!!!!go to hell you prick!! go to hell in a hand basket you dick head!!!
            
Hard to play? Try these video lessons and learn fast. | Correct




comments powered by Disqus
↑ Back to top | Tablatures and chords are parodies/interpretations of the original songs. You may use it for private study, scholarship, research or language learning purposes only