>
 >
Where I Stand

Where I Stand Guitar Tabs

Days Of The New - Where I Stand chords, tabs, tablatures, lyrics

Guitar lessons | Add/correct | Request | Top 50 tabs Artists:  A B C D E F G H I J K L M N O P Q R S T U V W X Y Z 0-9

Where I Stand Guitar Tabs – Days Of The New

CD, Sheet music, Poster

Do you like Where I Stand? Share with your friends now
Bass TabsTabs
-----------------------------------------------------------------------------
-----------------------------------------------------------------------------


Tuning: Double-Drop D & 1/2 step down.

I tabbed this out by ear & with fingers.So there are mistakes.
It's really hard to tab out the timing of this song,
but this gives you an idea. Corrections are more than welcome.

Intro:

Gtr.1
C#|--0-0-0-0-0-0-0-0-0-0-0-0-0-0-0-0-0-|-| Think of the fist three strings
A#|--3-3-3-3-3-3-3-3-3-3-3-3-3-3-3-3-3-| | as the rythym & the other three
F#|--2-2-2-2-2-2-2-2-2-2-2-2-2-2-2-2-2-|-|       as the baseline.
C#|--0---0h3-3---0---------------------|         
G#|----------------0h3--0h3--0h3-0h3---|
C#|----------------------------------3-|
Gtr.2
C#|----------------|----------|---------------|
A#|----------------|----------|---------------|
F#|--------2-------|----------|-------2-------|
C#|----------3-0---|-------3b-|---------3-0---|
G#|--5-3h5-------3-|-3h5-3----|-5-3h5-------3-|
C#|----------------|----------|---------------|


Gtr.1&2
C#|-0-|-0-0-|-0-|-0-0-|
A#|-3-|-3/6-|-5-|-5/6-|
F#|-2-|-2/5-|-4-|-4/5-|
C#|-0-|-0-0-|-0-|-0-0-| |-You'll have to figure timing yourself.
G#|---|-----|---|-----|  
C#|---|-----|---|-----|


===================================================================

Verse: 

Gtrs.1&2
C#|-----0-0-----0-0-------|   |-----0-0----0-0-0-0--|
A#|-----3-3-----3-3-------|   |-----3-3----3-3-3-3--|
F#|-0h2-2-2-0h2-2-2-2p0---|   |-----2-2----2-2-2-2--|
C#|-----0-0-----0-0-----3-|x3 |-----0-0----0-0-0-0--| 
G#|-----------------------|   |-0h3-----------------|
C#|-----------------------|   |---------0h3---------|
                                                               


===================================================================

Chrous: 

Gtr.1
C#|-----0-0-0-0-0-0-----0-0-----0-0-----0-0-----0-0-|-----------------------|
A#|-----3-3-3-3-3-3-----3-3-----3-3-----3-3-----3-3-|-----------------------|
F#|-0h2-2-2-2-2-2-2-----2-2-0h2-2-2-----2-2-0h2-2-2-|-----------------------|
C#|-----0-0-0-0-0-0-----0-0-----0-0-----0-0-----0-0-|-5p3-3-5-5p3-3-5-5-3-0-|
G#|---------------------------------0h3-------------|-5p3-3-5-5p3-3-5-5-3-0-|
C#|-----------------0h3-----------------------------|-5p3-3-5-5p3-3-5-5-3-0-|
Gtr.2
C#|-----------------------------------------------|-------------------------|
A#|-----------------------------------------------|-------------------------|
F#|-----------------------------------------------|-------------------------|
C#|--------------------%--------------------------|-5p3-0-3-----------------|
G#|-----------------------------------------------|---------5p3-0-3---------|
C#|-----------------------------------------------|-----------------5-5p3-0-|
                                                                           


====================================================================

Outro:

Gtrs.1&2
C#|-----0-0-----0-0-----0-0-----------------------------|
A#|-----3-3-----3-3-----3-3----------------0-0-0-0------|
F#|-0h2-2-2-0h2-2-2-0h2-2-2----------------0-0-0-0------|
C#|-----0-0-----0-0-----0-0-3--3-3-2-------0-0-0-0------|
G#|-----0-0-----0-0-----0-0----------3-3/5-5-5-5-5-5----|
C#|--------------------------------------------------3b-|


====================================================================





Comments


Popular Days Of The New tabs & chords
Solitude Chords
Bring Me Down (Intro) Tabs
Dirty Road Live Tabs
Enemy 3 Tabs
Now Tabs
The Down Town Tabs
The Down Town 1 Tabs
Touch Peel And Stand Tabs
Weapon & The Wound Tabs
Whimsical Tabs


Song lyrics



↑ Back to top | Tablatures and chords are parodies/interpretations of the original songs. You may use it for private study, scholarship, research or language learning purposes only
© 2014 AZChords.com Contact us | Privacy policy | DMCA | Add/correct tabs | Request tabs | Top 50 tabs