>
 >
Proud To Be Canadian

Proud To Be Canadian Guitar Tabs

Dayglo Abortions - Proud To Be Canadian chords, tabs, tablatures, lyrics

Guitar lessons | Add/correct | Request | Top 50 tabs Artists:  A B C D E F G H I J K L M N O P Q R S T U V W X Y Z 0-9

Proud To Be Canadian Guitar Tabs – Dayglo Abortions

CD, Sheet music, Poster

Do you like Proud To Be Canadian? Share with your friends now
Bass TabsChordsTabsTabs v2Tabs v3
Dayglo Abortions - Proud to be Canadian


Tuning: Standard (E A D G B E)

Follow along with the song for the rythmn

Intro
E|-------------------------------------------------------------------||
B|-------------------------------------------------------------------||
G|------------------7------------------------------------------------||
D|-9-9---5-5---7-7--7--7--(times four)-------------------------------||
A|-9-9---5-5---7-7--5--7---------------------------------------------||
E|-7-7---3-3---5-5-----5---------------------------------------------||

Intro Solo
E|-------------------------------------------------------------------||
B|---------------------------------------------------------7---------||
G|--------------------------------------------7--------7-9-9b11(9-9)-||
D|------------------------------------7h9p7-----9-7-9----------------||
A|----5-7-7-7-5-----5-7-7(1/2b)-5-----------9------------------------||
E|-/7------------7----------------7-5--------------------------------||
                       
E|-------------------------------------------------------------------||
B|-10p7--------------------------------------------------------------||
G|------10-9-7h9p7--7------------------------------------------------||
D|--------------------9-7-9-7---7------------------------------------||
A|----------------------------9---9-7--------5-7-7b8(7-7)-5----------||
E|------------------------------------10---7----------------5h7p5----||

E|----------------17-21-19-17----------------------------------------||
B|------------/19-------------19-17-19-17---17----17-----------------||
G|---------------------------------------------19--------------------||
D|-------------------------------------------------------------------||
A|-------------------------------------------------------------------||
E|-7---7-5-7---------------------------------------------------------||

E|-------------------------------------------------------------------||
B|-------------------------------------------------------------------||
G|------------------7------------------------------------------------||
D|-9-9---5-5---7-7--7--7-(repeat three times)--9---5---7-------------||
A|-9-9---5-5---7-7--5--7-----------------------9---5---7-------------||
E|-7-7---3-3---5-5-----5-----------------------7---3---5-------------||

Breakdown
E|-------------------------------------------------------------------||
B|-------------------------------------------------------------------||
G|------------------7-----7------------------------------------------||
D|-9-----5-----7----7--7--7--7---------------------------------------||
A|-9-----5-----7----5--7--5--7---------------------------------------||
E|-7-----3-----5-------5-----5---------------------------------------||

Chorus
E|-------------------------------------------------------------------||
B|-------------------------------------------------------------------||
G|------------------7-----7------------------------------------------||
D|-9-----5-----7----7--7--7--7--(repeat four times)------------------||
A|-9-----5-----7----5--7--5--7---------------------------------------||
E|-7-----3-----5-------5-----5---------------------------------------||

Verse
E|-------------------------------------------------------------------||
B|-------------------------------------------------------------------||
G|-------------------------------------------------------------------||
D|-5---9---5---9---5---9---5---9-------------------------------------||
A|-5---9---5---9---5---9---5---9-------------------------------------||
E|-3---7---3---7---3---7---3---7-------------------------------------||

Chorus 2
E|-------------------------------------------------------------------||
B|-------------------------------------------------------------------||
G|------------------7-----7------------------------------------------||
D|-9-----5-----7----7--7--7--7--(repeat three times)-9---5---7-------||
A|-9-----5-----7----5--7--5--7-----------------------9---5---7-------||
E|-7-----3-----5-------5-----5-----------------------7---3---5-------||

Bridge
E|-------------------------------------------------------------------||
B|-------------------------------------------------------------------||
G|-------------------------------------------------------------------||
D|------------4-4-3-3-2-2--(repeat three times)---------------9--5---||
A|---3-3-5-2---------------------------------------3-3-5-2----9--5---||
E|-3---------------------------------------------3------------7--3---||

E|---------------------------------||
B|---------------------------------||
G|-----7---7-----------------------||
D|-7---7-7-7-7---------------------||
A|-7---5-7-5-7---------------------||
E|-5-----5---5---------------------||

Chorus 3
E|-------------------------------------------------------------------||
B|-------------------------------------------------------------------||
G|------------------7-----7------------------------------------------||
D|-9-----5-----7----7--7--7--7--(repeat three times)-9---5---7-------||
A|-9-----5-----7----5--7--5--7-----------------------9---5---7-------||
E|-7-----3-----5-------5-----5-----------------------7---3---5-------||





Comments


Popular Dayglo Abortions tabs & chords
Big Michel Tabs
Brick Shithouse Bouncers Tabs
Bunchoffuckingoofs Tabs
Fuck The World If It Cant Take A Joke Tabs
Gutter Ball Tabs
Jerrys Retards Tabs
Lets Get Drunk Tabs
Man Bites Dog Tabs
Nikki Dial Tabs
The Idiot Tabs


Song lyrics



↑ Back to top | Tablatures and chords are parodies/interpretations of the original songs. You may use it for private study, scholarship, research or language learning purposes only
© 2014 AZChords.com Contact us | Privacy policy | DMCA | Add/correct tabs | Request tabs | Top 50 tabs