» » »

Proud To Be Canadian Chords (ver.1)

Artists:  A B C D E F G H I J K L M N O P Q R S T U V W X Y Z # 

Proud To Be Canadian Chords (ver.1)

Dayglo Abortions
Rating:
0/5 (0 votes)

Hard to play? Try these video lessons and learn fast.
                well this is basically two riffs... i'm not gonna tab out the solo 
parts.. so please don't e-mail me and ask for them... thanx.. <hope that 
didn't sound snotty>

e-|------------------
B-|------------------
G-|------------------
D-|-9-9-5-5-7-7-12-7-
A-|-9-9-5-5-7-7-12-7-
E-|-7-7-3-3-5-5-10-5-
play that for the intro and the verse... hmm...

e-|-------------------------------------
B-|---------------------------------
G-|---------------------------------
D-|-5-5-5-5-5-5-5-5-9-9-9-9-9-9-9-9-
A-|-5-5-5-5-5-5-5-5-9-9-9-9-9-9-9-9-
E-|-3-3-3-3-3-3-3-3-7-7-7-7-7-7-7-7-
thats basically the song...


ProUd tO Be A CAnadIan
...
i'm proud to be a canadian
pass me another beer
I'm proud to be a canadian
hold my seat while i take a p**s

our prime minister sucks dog sh*t through his nose
his ex wife gets brown showers from mick jagger
the only reason we live in f**king igloos
is our governemnt makes a living licking sh*t holes

I'm proud to be a canadian
pass me another welfare check
I'm proud to be a canadian
hold my seat while i go out and cash it

I'm proud to be a canadian
Pass me another eskimo
I'm proud to be a canadian
hold my seat while i f**k her up the a**hole

-------------------------------------
            
Hard to play? Try these video lessons and learn fast. | Correct




comments powered by Disqus
↑ Back to top | Tablatures and chords are parodies/interpretations of the original songs. You may use it for private study, scholarship, research or language learning purposes only