>
 >
This Ruined Puzzle 1

This Ruined Puzzle 1 Guitar Tabs

Dashboard Confessional - This Ruined Puzzle 1 chords, tabs, tablatures, lyrics

Guitar lessons | Add/correct | Request | Top 50 tabs Artists:  A B C D E F G H I J K L M N O P Q R S T U V W X Y Z 0-9

This Ruined Puzzle 1 Guitar Tabs – Dashboard Confessional

CD, Sheet music, Poster

Do you like This Ruined Puzzle 1? Share with your friends now
ChordsTabsTabs v2Tabs v3Ukulele
Tuning: drop guitar 1/2 step to Eb Ab Db Gb Bb Eb

Verse:

  "This Ruined Puzzle is beige with the pieces all face down" 
e|--0--------------------0-------------------------0-------------------0-----|
b|--0--------------------0-------------------------0-------------------0-----|
g|--0--------------------0-------------------------0-------------------0-----|
D|--2--------------------0-------------------------2-------------------0-----|
A|--3--------------------2-------------------------3-------------------3-----|
E|---------------------------------------------------------------------------|


"So the placing goes slowly the pictures of an...y...thing 
e|------0--------------------------------------------------------------------|
b|------0-----------------------------------0--------------------------------|
g|------0----------------------------0---2-------2---0-----------------------|
D|------2-----------------------1--------------------------------------------|
A|------3--------------------------------------------------------------------|
E|---------------------------------------------------------------------------|


   "other than it's meant to be"
e|--8------------------------8-----------------------------------------------|
b|--8------------------------8-----------------------------------------------|
g|--0------------------------0-----------------------------------------------|
D|--0------------------------0-----------------------------------------------|
A|--x------------------------x-----------------------------------------------|
E|--8------------------------8-----------------------------------------------|


"the hours they creep, the patterns repeat, don't be concerned"
e|--10---------------------12---------------10-------------------------------|
b|--10---------------------12---------------10-------------------------------|
g|---0---------------------0-----------------0-------------------------------|
D|---9--------------------*10----------------9-------------------------------|
A|--10--------------------*10----------------x-------------------------------|
E|-----------------------------------------(10)------------------------------|
                          *use first finger to barre

"you know ill be fine on my own........... I never said      "dont go"
e|---8----------------------7-----------------5---------------3--------------|
b|---8----------------------7-----------------5---------------3--------------|
g|---0----------------------0-----------------0---------------0--------------|
D|---7---------------------*5-----------------0---------------2--------------|
A|---8---------------------*5-----------------5---------------3--------------|
E|---------------------------------------------------------------------------|
                          *use first finger to barre
   "(dont go)"
e|---3-----------------------------------------------------------------------|
b|---3-----------------------------------------------------------------------|
g|---0-----------------------------------------------------------------------|
D|---2-----------------------------------------------------------------------|
A|---3-----------------------------------------------------------------------|
E|---------------------------------------------------------------------------|

Chorus:

But i've hidden a note it's  pressed between pages that You've marked to find
e|-------3-------------------8--------------------------3--------------------|
b|-------3-------------------8--------------------------3--------------------|
g|-------0-------------------0--------------------------0--------------------|
D|-------0-------------------7--------------------------2--------------------|
A|-------2-------------------8--------------------------3--------------------|
E|-------3-------------------------------------------------------------------|

your way back.  It says, "Does he...... ever get the.... girl?" But what if
e|-------3----------------3-------------3----------------3-------------------|
b|-------3----------------3-------------3----------------3-------------------|
g|-------0----------------0-------------0----------------0-------------------|
D|-------2----------------0-------------0----------------2-------------------|
A|-------3----------------2-------------0----------------3-------------------|
E|------------------------3-------------2------------------------------------|

the pages stay pressed the chapters unfinished the stories too
e|--0----------------------8-----------------------3-------------------------|
b|--3----------------------8-----------------------3-------------------------|
g|--0----------------------0-----------------------0-------------------------|
D|--0----------------------7-----------------------2-------------------------|
A|--2----------------------8-----------------------3-------------------------|
E|--3------------------------------------------------------------------------|


 dull to unfold          "Does he...... ever get the.... girl?" 
e|-------3----------------3-------------3----------------3-------------------|
b|-------3----------------3-------------3----------------3-------------------|
g|-------0----------------0-------------0----------------0-------------------|
D|-------2----------------0-------------0----------------2-------------------|
A|-------3----------------2-------------0----------------3-------------------|
E|------------------------3-------------2------------------------------------|

Verse 2:

Well this basementís    a   coffin       itís       buried         alive.
e|--------0-----------------0-----------------------0------------------0-----|
b|--------0-----------------0-----------------------0------------------0-----|
g|--------0-----------------0-----------------------0------------------0-----|
D|--------2-----------------0-----------------------2------------------0-----|
A|--------3-----------------2-----------------------3------------------3-----|
E|---------------------------------------------------------------------------|

   Iíll   die   in   here   just    to     be       safe
e|--------0-----------------0-----------------------0------------------0-----|
b|--------0-----------------0-----------------------0------------------0-----|
g|--------0-----------------0-----------------------0------------------0-----|
D|--------2-----------------0-----------------------2------------------0-----|
A|--------3-----------------2-----------------------3------------------3-----|
E|---------------------------------------------------------------------------|

Iíll  die  in  here             just . . . to  . . . be . . 
e|----0----------------0-----------------------------------------------------|
b|----0----------------0--------------------0--------------------------------|
g|----0----------------0-------------0---2-------2---0-----------------------|
D|----0----------------2--------1--------------------------------------------|
A|----2----------------3-----------------------------------------------------|
E|---------------------------------------------------------------------------|


    safe
e|--8------------------------8-----------------------------------------------|
b|--8------------------------8-----------------------------------------------|
g|--0------------------------0-----------------------------------------------|
D|--0------------------------0-----------------------------------------------|
A|--x------------------------x-----------------------------------------------|
E|--8------------------------8-----------------------------------------------|

        Cause your gone            I   get   nothing	
e|-----------------10------------------------12------------------------------|
b|-----------------10------------------------12------------------------------|
g|------------------0-------------------------0------------------------------|
D|------------------9-----------------------*10------------------------------|
A|-----------------10-----------------------*10------------------------------|
E|---------------------------------------------------------------------------|                                    				  *use first finger to barre
               
and you're off with barely a sigh
e|---------------------------------------------------------------------------|
b|------------15-----------15----------13---------13-------------------------|
g|--------0------------0------------0----------0-----------------------------|
D|---13------------13----------13----------13--------------------------------|
A|---------------------------------------------------------------------------|
E|---------------------------------------------------------------------------|

               i never said goodbye            
e|---7-----------5--------------3---------------3----------------------------|
b|---7-----------5--------------3---------------3----------------------------|
g|---0-----------0--------------0---------------0----------------------------|
D|--*5-----------0--------------2---------------2----------------------------|
A|--*5-----------5--------------3---------------3----------------------------|
E|---------------------------------------------------------------------------|

Chorus:

But i've hidden a note it's  pressed between pages that You've marked to find
e|-------3-------------------8--------------------------3--------------------|
b|-------3-------------------8--------------------------3--------------------|
g|-------0-------------------0--------------------------0--------------------|
D|-------0-------------------7--------------------------2--------------------|
A|-------2-------------------8--------------------------3--------------------|
E|-------3-------------------------------------------------------------------|

your way back.  It says, "Does he...... ever get the.... girl?"   
e|-------3----------------3-------------3----------------3-------------------|
b|-------3----------------3-------------3----------------3-------------------|
g|-------0----------------0-------------0----------------0-------------------|
D|-------2----------------0-------------0----------------2-------------------|
A|-------3----------------2-------------0----------------3-------------------|
E|------------------------3-------------2------------------------------------|

But i've hidden a note it's  pressed between pages that You'll read if youíre
e|-------3-------------------8--------------------------3--------------------|
b|-------3-------------------8--------------------------3--------------------|
g|-------0-------------------0--------------------------0--------------------|
D|-------0-------------------7--------------------------2--------------------|
A|-------2-------------------8--------------------------3--------------------|
E|-------3-------------------------------------------------------------------|


      so inclined        "Does he...... ever get the.... girl?" 
e|-------3----------------3-------------3----------------3-------------------|
b|-------3----------------3-------------3----------------3-------------------|
g|-------0----------------0-------------0----------------0-------------------|
D|-------2----------------0-------------0----------------2-------------------|
A|-------3----------------2-------------0----------------3-------------------|
E|------------------------3-------------2------------------------------------|

Ending:

the hours they creep, the  patterns repeat,
e|--10---------------------12------------------------------------------------|
b|--10---------------------12------------------------------------------------|
g|---0---------------------0-------------------------------------------------|
D|---9--------------------*10------------------------------------------------|
A|--10--------------------*10------------------------------------------------|
E|---------------------------------------------------------------------------|

     dont be concerned you know i'll be fine on my
e|---------------------------------------------------------------------------|
b|------------15-----------15----------13---------13-------------------------|
g|--------0------------0------------0----------0-----------------------------|
D|---13------------13----------13----------13--------------------------------|
A|---------------------------------------------------------------------------|
E|---------------------------------------------------------------------------|

     own...                    i never      said    "dont      
e|---------------------------------------------------------------------------|
b|------------12------------12----------10----------10-----------------------|
g|--------0-------------0------------0-----------0---------------------------|
D|---12------------12-----------11----------11-------------------------------|
A|---------------------------------------------------------------------------|
E|---------------------------------------------------------------------------|

     go"                    (dont go)
e|-----------10-----------10--------------10------------10-------------------|
b|---------------------------------------------------------------------------|
g|--------0-----------0---------------0-------------0------------------------|
D|---10----------10--------------10------------10----------------------------|
A|---------------------------------------------------------------------------|
E|---------------------------------------------------------------------------|

(lightly pick)
e|--10---------------------12------------------------------------------------|
b|--10---------------------12------------------------------------------------|
g|---0---------------------0-------------------------------------------------|
D|---9--------------------*10------------------------------------------------|
A|--10--------------------*10------------------------------------------------|
E|---------------------------------------------------------------------------|


e|---------------------------------------------------------------------------|
b|------------15-----------15----------13---------13-------------------------|
g|--------0------------0------------0----------0-----------------------------|
D|---13------------13----------13----------13--------------------------------|
A|---------------------------------------------------------------------------|
E|---------------------------------------------------------------------------|


     "does    he                ever        get      the
e|---------------------------------------------------------------------------|
b|------------12------------12-----------10----------10----------------------|
g|--------0-------------0------------0-----------0---------------------------|
D|---12------------12-----------11----------11-------------------------------|
A|---------------------------------------------------------------------------|
E|---------------------------------------------------------------------------|

     girl?"
e|-----------10-----------10--------------10------------10-------------------|
b|---------------------------------------------------------------------------|
g|--------0-----------0---------------0-------------0------------------------|
D|---10----------10--------------10------------10----------------------------|
A|---------------------------------------------------------------------------|
E|---------------------------------------------------------------------------|


e|-----------10-----------10--------------10------------10-------------------|
b|---------------------------------------------------------------------------|
g|--------0-----------0---------------0-------------0------------------------|
D|---9-----------9---------------9-------------9-----------------------------|
A|---------------------------------------------------------------------------|
E|---------------------------------------------------------------------------|

e|-----------10-----------10-------------------------------------------------|
b|---------------------------------------------------------------------------|
g|--------0-----------0---------0--Let Ring----------------------------------|
D|---9-----------9-----------------------------------------------------------|
A|---------------------------------------------------------------------------|
E|---------------------------------------------------------------------------|

End





Comments


Popular Dashboard Confessional tabs & chords
Vindicated 2 Chords
Warmth Of The Sand 1 Chords
Best Deceptions Intro Tabs
Clean Breaks 1 Tabs
Ender Will Save Us All 3 Tabs
If You Cant Let It Be Might As Well Make Tabs
Rapid Hope Loss 2 Tabs
This Ruined Puzzle Tabs
Carry This Picture Ukulele
Get Me Right Ukulele


Song lyrics



↑ Back to top | Tablatures and chords are parodies/interpretations of the original songs. You may use it for private study, scholarship, research or language learning purposes only
© 2014 AZChords.com Contact us | Privacy policy | DMCA | Add/correct tabs | Request tabs | Top 50 tabs