» » »

The Brilliant Dance Tabs (ver.2)

Artists:  A B C D E F G H I J K L M N O P Q R S T U V W X Y Z # 

The Brilliant Dance Tabs (ver.2)

Dashboard Confessional
Rating:
0/5 (0 votes)

Hard to play? Try these video lessons and learn fast.
                Tuning:Db Ab Db Db Db Db
(I may not have put the exact amount of times to strum each chord, just the basic idea)

Verse
Db-0-0-0-0-0-0-0-0-0-0--0-0-0-0-0--0-0-0-0-0--
Db-0-0-0-0-0-0-0-0-0-0--0-0-0-0-0--0-0-0-0-0--
Db-0-0-0-0-0-0-0-0-0-0--0-0-0-0-0--0-0-0-0-0--
Db-4-4-4-4-4-4-4-4-4-4--2-2-2-2-2--5-5-5-5-5--
Ab-4-4-4-4-4-4-4-4-4-4--x-x-x-x-x--x-x-x-x-x--
Db-0-0-0-0-0-0-0-0-0-0--2-2-2-2-2--5-5-5-5-5--
So this is odd....(x4)                                                                              


Chorus (x2)
Db-0-0-0-0--0-0-0-0--0-0-0-0--0-0-0-0----
Db-0-0-0-0--0-0-0-0--0-0-0-0--0-0-0-0----
Db-0-0-0-0--0-0-0-0--0-0-0-0--0-0-0-0----
Db-0-0-0-0--0-0-0-0--0-0-0-0--0-0-0-0----
Ab-0-0-0-0--0-0-0-0--2-2-2-2--4-4-4-4----
Db-0-0-0-0--0-0-0-0--0-0-0-0--0-0-0-0----
So you buried all your lovers clothes                                                                              
Db-0-0-0-0--0-0-0-0--0-0-0-0--0-0-0-0-----
Db-0-0-0-0--0-0-0-0--0-0-0-0--0-0-0-0-----
Db-0-0-0-0--0-0-0-0--0-0-0-0--0-0-0-0-----
Db-0-0-0-0--4-4-4-4--5-5-5-5--4-4-4-4-----
Ab-5-5-5-5--5-5-5-5--5-5-5-5--5-5-5-5-----
Db-5-5-5-5--5-5-5-5--5-5-5-5--5-5-5-5-----
Burned the letters lover wrote                                                                              
Db-2-2-2-2--2-2-2-2--2-2-2-2--2-2-2-2---
Db-2-2-2-2--2-2-2-2--2-2-2-2--2-2-2-2---
Db-2-2-2-2--2-2-2-2--2-2-2-2--2-2-2-2---
Db-2-2-2-2--4-4-4-4--5-5-5-5--4-4-4-4---
Ab-2-2-2-2--2-2-2-2--2-2-2-2--2-2-2-2---
Db-2-2-2-2--2-2-2-2--2-2-2-2--2-2-2-2---
But it doesn't make it any better                                                                              
Db-0-0-0-0--0-0-0-0--0-0-0-0--0-0-0-0-----
Db-0-0-0-0--0-0-0-0--0-0-0-0--0-0-0-0-----
Db-0-0-0-0--0-0-0-0--0-0-0-0--0-0-0-0-----
Db-0-0-0-0--4-4-4-4--5-5-5-5--4-4-4-4-----
Ab-5-5-5-5--5-5-5-5--5-5-5-5--5-5-5-5-----
Db-5-5-5-5--5-5-5-5--5-5-5-5--5-5-5-5-----
Does it make it any better?                                                                              
-End Chorus-


Verse
Db-0-0-0-0-0-0-0-0-0-0--0-0-0-0-0--0-0-0-0-0--
Db-0-0-0-0-0-0-0-0-0-0--0-0-0-0-0--0-0-0-0-0--
Db-0-0-0-0-0-0-0-0-0-0--0-0-0-0-0--0-0-0-0-0--
Db-4-4-4-4-4-4-4-4-4-4--2-2-2-2-2--5-5-5-5-5--
Ab-4-4-4-4-4-4-4-4-4-4--x-x-x-x-x--x-x-x-x-x--
Db-0-0-0-0-0-0-0-0-0-0--2-2-2-2-2--5-5-5-5-5--
So this is strange....(x4)  


Chorus (x2)
Db-0-0-0-0--0-0-0-0--0-0-0-0--0-0-0-0----
Db-0-0-0-0--0-0-0-0--0-0-0-0--0-0-0-0----
Db-0-0-0-0--0-0-0-0--0-0-0-0--0-0-0-0----
Db-0-0-0-0--0-0-0-0--0-0-0-0--0-0-0-0----
Ab-0-0-0-0--0-0-0-0--2-2-2-2--4-4-4-4----
Db-0-0-0-0--0-0-0-0--0-0-0-0--0-0-0-0----
And the picture frames are facing down		                                                                            
Db-0-0-0-0--0-0-0-0--0-0-0-0--0-0-0-0-----
Db-0-0-0-0--0-0-0-0--0-0-0-0--0-0-0-0-----
Db-0-0-0-0--0-0-0-0--0-0-0-0--0-0-0-0-----
Db-0-0-0-0--4-4-4-4--5-5-5-5--4-4-4-4-----
Ab-5-5-5-5--5-5-5-5--5-5-5-5--5-5-5-5-----
Db-5-5-5-5--5-5-5-5--5-5-5-5--5-5-5-5-----
And the ringing from this empty sound                                                                              
Db-2-2-2-2--2-2-2-2--2-2-2-2--2-2-2-2---
Db-2-2-2-2--2-2-2-2--2-2-2-2--2-2-2-2---
Db-2-2-2-2--2-2-2-2--2-2-2-2--2-2-2-2---
Db-2-2-2-2--4-4-4-4--5-5-5-5--4-4-4-4---
Ab-2-2-2-2--2-2-2-2--2-2-2-2--2-2-2-2---
Db-2-2-2-2--2-2-2-2--2-2-2-2--2-2-2-2---
Is deafening and keeping you from    

Db-0-0-0-0--0-0-0-0--0-0-0-0--0-0-0-0-----
Db-0-0-0-0--0-0-0-0--0-0-0-0--0-0-0-0-----
Db-0-0-0-0--0-0-0-0--0-0-0-0--0-0-0-0-----
Db-0-0-0-0--4-4-4-4--5-5-5-5--4-4-4-4-----
Ab-5-5-5-5--5-5-5-5--5-5-5-5--5-5-5-5-----
Db-5-5-5-5--5-5-5-5--5-5-5-5--5-5-5-5-----                                                            Sleep 

-End Chorus-         


Fill
Db-0-0-0-0--0-0-0-0--0-0-0-0--0-0-0-0-----
Db-0-0-0-0--0-0-0-0--0-0-0-0--0-0-0-0-----
Db-0-0-0-0--0-0-0-0--0-0-0-0--0-0-0-0-----
Db-2-2-2-2--4-4-4-4--5-5-5-5--7-7-7-7-----
Ab-2-2-2-2--4-4-4-4--5-5-5-5--7-7-7-7-----
Db-0-0-0-0--0-0-0-0--0-0-0-0--0-0-0-0-----
                                                                             

Bridge/Outro (x2)
Db-0-0-0-0--0-0-0-0--0-0-0-0--0-0-0-0--0-0-0-0--0-0-0-0--0-0-0-0--0-0-0-0-------
Db-12121212-11111111-9-9-9-9--7-7-7-7--0-0-0-0--0-0-0-0--0-0-0-0--0-0-0-0-------
Db-0-0-0-0--0-0-0-0--0-0-0-0--0-0-0-0--0-0-0-0--0-0-0-0--0-0-0-0--0-0-0-0-------
Db-0-0-0-0--0-0-0-0--0-0-0-0--0-0-0-0--5-5-5-5--4-4-4-4--2-2-2-2--x-x-x-x-------
Ab-0-0-0-0--0-0-0-0--0-0-0-0--0-0-0-0--2-2-2-2--2-2-2-2--3-3-3-3--3-3-3-3-------
Db-0-0-0-0--0-0-0-0--0-0-0-0--0-0-0-0--0-0-0-0--0-0-0-0--0-0-0-0--0-0-0-0-------
This is incredible, starving, insatiable, yes this is love for the first time                                                                               
Db-0-0-0-0--0-0-0-0--0-0-0-0--0-0-0-0--0-0-0-0--0-0-0-0--0-0-0-0--0-0-0-0-------
Db-0-0-0-0--0-0-0-0--0-0-0-0--0-0-0-0--0-0-0-0--0-0-0-0--0-0-0-0--0-0-0-0-------
Db-x-x-x-x--x-x-x-x--x-x-x-x--x-x-x-x--0-0-0-0--0-0-0-0--0-0-0-0--0-0-0-0-------
Db-7-7-7-7--9-9-9-9--4-4-4-4--5-5-5-5--5-5-5-5--4-4-4-4--2-2-2-2--x-x-x-x-------
Ab-0-0-0-0--0-0-0-0--0-0-0-0--0-0-0-0--2-2-2-2--2-2-2-2--3-3-3-3--3-3-3-3-------
Db-0-0-0-0--0-0-0-0--0-0-0-0--0-0-0-0--0-0-0-0--0-0-0-0--0-0-0-0--0-0-0-0-------
You like to think that you were invincible, yea, well weren't we all once.....   

End On
Db-0-
Db-0-
Db-0-
Db-0-
Ab-0-
Db-0-
            
Hard to play? Try these video lessons and learn fast. | Correct




comments powered by Disqus
↑ Back to top | Tablatures and chords are parodies/interpretations of the original songs. You may use it for private study, scholarship, research or language learning purposes only