» » »

So Impossible Tabs (ver.1)

Artists:  A B C D E F G H I J K L M N O P Q R S T U V W X Y Z # 

So Impossible Tabs (ver.1)

Dashboard Confessional
Rating:
0/5 (0 votes)

Hard to play? Try these video lessons and learn fast.
                Dashboard Confessional

EbAbDbGbBbEb

Intro 
Eb|--0--| 
Bb|--0--| 
Gb|--9--| 
Db|-11--| 
Ab|-11--| 
Eb|--0--| 


Verse - 4X: "So she said.." 
Eb|--0---0--0--| 
Bb|--0---0--0--| 
Gb|--8---9--6--| 
Db|--9--11--7--| 
Ab|--9---------| 
Eb|--7---------| 


Prechorus 
Eb|--------| 
Bb|--------| 
Gb|--------| 
Db|--------| 
Ab|--6--7--| 
Eb|--4--5--| 


Chorus - 4X "Do you like..." 
Eb|--0--0--0--0--| 
Bb|--0--0--0--0--| 
Gb|--8--3--4--6--| 
Db|--9--4--6--7--| 
Ab|--9--4--6--7--| 
Eb|--7--2--------| 


Outro (Palm Muted) "I'll see you.." 
Eb|---------| 
Bb|---------| 
Gb|---------| 
Db|-----11--| 
Ab|--9---9--| 
Eb|--7------| 

End On 
Eb|-----| 
Bb|-----| 
Gb|-----| 
Db|-----| 
Ab|--7--| 
Eb|--5--|
            
Hard to play? Try these video lessons and learn fast. | Correct




comments powered by Disqus
↑ Back to top | Tablatures and chords are parodies/interpretations of the original songs. You may use it for private study, scholarship, research or language learning purposes only