» » »

Dashboard Confessional, Ghost Of A Good Thing Tabs (ver.2)

Artists:  A B C D E F G H I J K L M N O P Q R S T U V W X Y Z # 

Ghost Of A Good Thing Tabs (ver.2)

Dashboard Confessional Tabs
 Rating:
4/5 (4 votes)
Ghost Of A Good Thing lessons Tabs too difficult? Try these video lessons and learn fast
                (jesusrocks123)
ok this tab was easy for me so its probibly
 gonna b easy for u so here we go.
Jus mess around with this and ull get it.
Be Free to add stuff or correct it if im wrong
 but this is 100% for sure. enjoy!

Standard tuning

 Key : 
      / = slide up to numbered fret
Intro/Verse
e|---------------------------------
B|---------------------------------
G|5-5-5-5--------------------------
D|5-5-5-5-2-2-3-3/5/7-7-2-2-3-3-3-3
A|3-3-3-3-2-2-3-3/5/7-7-2-2-3-3-3-3
E|--------0-0-1-1/3/5-5-0-0-1-1-1-1

Chorus
e|---------------------------------
B|---------------------------------
G|5-5-5-5--------------------------
D|5-5-5-5-2-2-3-3/5/7-7-2-2-3-3-3-3
A|3-3-3-3-2-2-3-3/5/7-7-2-2-3-3-3-3
E|--------0-0-1-1/3/5-5-0-0-1-1-1-1
            
Submit corrections

comments powered by Disqus
↑ Back to top | Dashboard Confessional Tabs for Ghost Of A Good Thing. Lyrics for acoustic guitar and electric guitar. Tablatures and chords are parodies/interpretations of the original songs. You may use it for private study, scholarship, research or language learning purposes only