» » »

Dashboard Confessional, Carve Your Heart Out Yourself Tabs (ver.3)

Artists:  A B C D E F G H I J K L M N O P Q R S T U V W X Y Z # 

Carve Your Heart Out Yourself Tabs (ver.3)

Dashboard Confessional Tabs
 Rating:
3.7/5 (6 votes)
Carve Your Heart Out Yourself lessons Tabs too difficult? Try these video lessons and learn fast
                -----------------------------------------------------------------------------
              Carve Your Heart Out Yourself - Dashboard Confessional
-----------------------------------------------------------------------------

Tuning:C#G#BF#BD#

   Intro (Guitar 1)
D#|----0-----0-----|---0-----0-----|---0-----0-----|---0-------0-----|
B |------0-----0---|-----0-----0---|-----0-----0---|-----0-------0---|
F#|--------------0-|-------------0-|-------------0-|-------0-------0-|
B |----0-----------|---0-----------|---0-----------|---0-------0-----|
G#|--------7-------|-------5-------|--------7------|-----------------|
C#|--5-------------|-3-------------|-5-------------|-3-------3-------|

D#|----0-----0-----|---0-----0-----|---------0-----|--------0--------|
B |------0-----0---|-----0-----0---|---0-0---------|--0-0------------|
F#|--------------0-|-------------0-|-------0-------|-----------------|
B |----0-----------|---0-----------|---0-----------|--0---0----------|
G#|--------7-------|-------5-------|---------------|-----------------|
C#|--5-------------|-3-------------|-3-------------|3----------------|

   Verse 1 (Guitar 1)
D#|--------0-----|-------0---------|
B |----0-----0---|---0-----0-------|
F#|------0-----0-|-----0-----0-----|x4
B |--4-----------|-5---------------|
G#|--------------|-----------------|
C#|--------------|-----------------|

   (Guitar 2)
D#|--00-000-00-000-|-00-000-00-000-|
B |--00-000-00-000-|-00-000-00-000-|
F#|--00-000-00-000-|-00-000-00-000-|x4
B |--00-000-00-000-|-00-000-00-000-|
G#|--77-777-77-777-|-55-555-55-555-|
C#|--55-555-55-555-|-33-333-33-333-|

   Pre-Chorus (Guitar 1)
D#|----------0---|---------0------|---------0------|---------------|
B |----------0---|---------0------|---------0------|---------------|
F#|--4h52----2---|-4h54----4------|-4h52----2------|---------------|
B |--------------|----------------|----------------|---------------|
G#|--------------|----------------|----------------|---------------|
C#|--------------|----------------|----------------|---------------|

   (Guitar 2)
D#|--00-000-00-000-|-00-000-00-000-|-00-000-00-000-|-0-0~----------|
B |--00-000-00-000-|-00-000-00-000-|-00-000-00-000-|-0-0~----------|
F#|--00-000-00-000-|-00-000-00-000-|-00-000-00-000-|-0-0~----------|
B |--00-000-00-000-|-00-000-00-000-|-00-000-00-000-|-0-2~----------|
G#|--77-777-77-777-|-55-555-55-555-|-33-333-33-333-|-3-3~----------|
C#|--77-777-77-777-|-55-555-55-555-|-33-333-33-333-|-3-3~----------|

   Chorus (Guitar 1)
D#|--0~------------|-0~------------|-0~------------|-0~-----0~-----|
B |--0~------------|-0~------------|-0~------------|-0~-----0~-----|
F#|--0~------------|-0~------------|-0~------------|-0~-----0~-----|x2
B |--0~------------|-0~------------|-9~------------|-0~-----0~-----|
G#|--7~------------|-7~------------|-8~------------|-7~-----5~-----|
C#|--5~------------|-5~------------|---------------|-5~-----3~-----|

   (Guitar 2)
D#|--00-000-00-000-|-00-000-00-000-|-00-000-00-000-|-00-000-00-000-|
B |--00-000-00-000-|-00-000-00-000-|-00-000-00-000-|-00-000-00-000-|
F#|--00-000-00-000-|-00-000-00-000-|-00-000-00-000-|-00-000-00-000-|x2
B |--00-000-00-000-|-00-000-00-000-|-00-000-02-222-|-00-000-02-222-|
G#|--33-333-22-222-|-00-000-77-777-|-33-333-33-333-|-33-333-33-333-|
C#|--55-555-55-555-|-55-555-55-555-|-33-333-33-333-|-33-333-33-333-|


   Pre-Verse(Guitar 1)
D#|--------0-----|-------0---------|
B |----0-----0---|---0-----0-------|
F#|------0-----0-|-----0-----0-----|x2
B |--4-----------|-5---------------|
G#|--------------|-----------------|
C#|--------------|-----------------|

   (Guitar 2)
D#|--00~---------|-----------------|
B |--00~---------|-----------------|
F#|--00~---------|-----------------|
B |--00~---------|-----------------|
G#|--77~---------|-----------------|
C#|--55~---------|-----------------|

   Verse 2(Guitar 1)
D#|--------0-----|-------0---------|
B |----0-----0---|---0-----0-------|
F#|------0-----0-|-----0-----0-----|x4
B |--4-----------|-5---------------|
G#|--------------|-----------------|
C#|--------------|-----------------|

   (Guitar 2)
D#|--00-000-00-000-|-00-000-00-000-|
B |--00-000-00-000-|-00-000-00-000-|
F#|--00-000-00-000-|-00-000-00-000-|x4
B |--00-000-00-000-|-00-000-00-000-|
G#|--77-777-77-777-|-55-555-55-555-|
C#|--55-555-55-555-|-33-333-33-333-|

   Pre-Chorus (Guitar 1)
D#|----------0---|---------0------|---------0------|---------------|
B |----------0---|---------0------|---------0------|---------------|
F#|--4h52----2---|-4h54----4------|-4h52----2------|---------------|
B |--------------|----------------|----------------|---------------|
G#|--------------|----------------|----------------|---------------|
C#|--------------|----------------|----------------|---------------|

   (Guitar 2)
D#|--00-000-00-000-|-00-000-00-000-|-00-000-00-000-|-0-0-----------|
B |--00-000-00-000-|-00-000-00-000-|-00-000-00-000-|-0-0-----------|
F#|--00-000-00-000-|-00-000-00-000-|-00-000-00-000-|-0-0-----------|
B |--00-000-00-000-|-00-000-00-000-|-00-000-00-000-|-0-2-----------|
G#|--77-777-77-777-|-55-555-55-555-|-33-333-33-333-|-3-3-----------|
C#|--77-777-77-777-|-55-555-55-555-|-33-333-33-333-|-3-3-----------|

   Chorus 2 (Guitar 1)
D#|--0~------------|-0~------------|-0~------------|-0~-----0~-----|
B |--0~------------|-0~------------|-0~------------|-0~-----0~-----|
F#|--0~------------|-0~------------|-0~------------|-0~-----0~-----|x2
B |--0~------------|-0~------------|-9~------------|-0~-----0~-----|
G#|--7~------------|-7~------------|-8~------------|-7~-----5~-----|
C#|--5~------------|-5~------------|---------------|-5~-----3~-----|

   (Guitar 2)
D#|--00-000-00-000-|-00-000-00-000-|-00-000-00-000-|-00-000-00-000-|
B |--00-000-00-000-|-00-000-00-000-|-00-000-00-000-|-00-000-00-000-|
F#|--00-000-00-000-|-00-000-00-000-|-00-000-00-000-|-00-000-00-000-|x2
B |--00-000-00-000-|-00-000-00-000-|-00-000-02-222-|-00-000-02-222-|
G#|--33-333-22-222-|-00-000-77-777-|-33-333-33-333-|-33-333-33-333-|
C#|--55-555-55-555-|-55-555-55-555-|-33-333-33-333-|-33-333-33-333-|

   Interlude (Guitar 1)
D#|--0-------------|-0-------------|-0-------------|-0-------------|
B |--0-------------|-0-------------|-0-------------|-0-------------|
F#|--5----575------|-5----575------|-5----575------|-5----595------|x2
B |----------------|---------------|---------------|---------------|
G#|----------------|---------------|---------------|---------------|
C#|----------------|---------------|---------------|---------------|

   (Guitar 2)
D#|--00-000-00-000-|-00-000-00-000-|-00-000-00-000-|-00-000-00-000-|
B |--00-000-00-000-|-00-000-00-000-|-00-000-00-000-|-00-000-00-000-|
F#|--00-000-00-000-|-00-000-00-000-|-00-000-00-000-|-00-000-00-000-|x2
B |--00-000-00-000-|-00-000-00-000-|-00-000-02-222-|-00-000-02-222-|
G#|--33-333-22-222-|-00-000-77-777-|-33-333-33-333-|-33-333-33-333-|
C#|--55-555-55-555-|-55-555-55-555-|-33-333-33-333-|-33-333-33-333-|

   Last Chorus (Guitar 1)
D#|0~--------------|-0~--------------|-0~--------------|-0~-----0~-------|
B |0~--------------|-0~--------------|-0~--------------|-0~-----0~-------|
F#|0~--------------|-0~--------------|-0~--------------|-0~-----0~-------|x2
B |0~--------------|-0~--------------|-9~--------------|-0~-----0~-------|
G#|7~--------------|-7~--------------|-8~--------------|-7~-----5~-------|
C#|5~--------------|-5~--------------|-----------------|-5~-----3~-------|

   (Guitar 2)
D#|00-000--00-000--|-00-000--00-000--|-00-000--00-000--|-00-000--00-000--|
B |00-000--00-000--|-00-000--00-000--|-00-000--00-000--|-00-000--00-000--|
F#|00-000--00-000--|-00-000--00-000--|-00-000--00-000--|-00-000--00-000--|x6
B |00-000--00-000--|-00-000--00-000--|-00-000--02-222--|-00-000--02-222--|
G#|33-333--22-222--|-00-000--77-777--|-33-333--33-333--|-33-333--33-333--|
C#|55-555--55-555--|-55-555--55-555--|-33-333--33-333--|-33-333--33-333--|

   (Guitar 3)
D#|----0-----------|-----0-----------|-----------------|-----------------|
B |--7---7---7---7-|---7---7---7---7-|---7-5-7---7-5-7-|---7-5-7---7---7-|
F#|5-------5---7---|-5-------5---7---|-5-------5-------|-5-------5---7---|x6
B |----------------|-----------------|-----------------|-----------------|
G#|----------------|-----------------|-----------------|-----------------|
C#|----------------|-----------------|-----------------|-----------------|


   Outro (Guitar 1)
D#|----0-----0-----|---0-----0-----|---0-----0-----|---0-----0------|
B |------0-----0---|-----0-----0---|-----0-----0---|-----0-----0----|
F#|--------------0-|-------------0-|-------------0-|-------------0--|
B |----0-----------|---0-----------|---0-----------|---0------------|
G#|--------7-------|-------5-------|--------7------|-------3--------|
C#|--5-------------|-3-------------|-5-------------|-3--------------|

D#|----0-----0-----|---0-----0-----|---0-----0-----|----0-----0-----|
B |------0-----0---|-----0-----0---|-----0---------|------0-----0---|
F#|--------------0-|-------------0-|-------0-------|--------0-----0-|
B |----0-----------|---0-----------|---0-----------|----0-----------|
G#|--------7-------|-------8-------|---------------|----------------|
C#|--5-------------|-7-------------|-9-------------|-10-------------|

D#|-0~-------------|
B |-0~-------------|
F#|-0~-------------|
B |-0~-------------|
G#|-7~-------------|
C#|-5~-------------|

I\'ve been looking all over for this tab and I couldn\'t find it anywhere so
I just decided to tab it. Tune the low E and D one and a half steps. Tune A, G, and high 
down half a step. This is my first tab and I\'m 14 years old, so I'm sorry if it\'s not 

| /  slide up
|   slide down
| h  hammer-on
| p  pull-off
| ~  vibrato
| +  harmonic
| x  Mute note
=============================================================================
            
Submit corrections

comments powered by Disqus
↑ Back to top | Dashboard Confessional Tabs for Carve Your Heart Out Yourself. Lyrics for acoustic guitar and electric guitar. Tablatures and chords are parodies/interpretations of the original songs. You may use it for private study, scholarship, research or language learning purposes only