>
 >
A Plain Morning 2

A Plain Morning 2 Guitar Tabs

Dashboard Confessional - A Plain Morning 2 chords, tabs, tablatures, lyrics

Guitar lessons | Add/correct | Request | Top 50 tabs Artists:  A B C D E F G H I J K L M N O P Q R S T U V W X Y Z 0-9

A Plain Morning 2 Guitar Tabs – Dashboard Confessional

CD, Sheet music, Poster

Do you like A Plain Morning 2? Share with your friends now
ChordsChords v2Chords v3TabsTabs v2Tabs v3
Band - Dashboard Confessional
Song - A Plain Morning

Tuning eb Bb Gb Db Ab Eb

eb|--x-x-3----------------|-3------------------------|--------------------------| 
Bb|--x-x-3----------------|-5------------------------|--------------------------| 
Gb|--x-x-4----------------|-5------------------------|-0------------------------| 
Db|--x-x-5----------------|-5------------------------|-2------------------------| 
Ab|--x-x-5----------------|-3------------------------|-2------------------------| 
Eb|--x-x-3----------------|-3------------------------|-0------------------------| 

eb|-----------|-3---------------|-2----------------------------|-3--------------| 
Bb|-----------|-3---------------|-3----------------------------|-3--------------| 
Gb|-----------|-4---------------|-2----------------------------|-4--------------| 
Db|-----------|-5---------------|-0----------------------------|-5--------------| 
Ab|-----------|-5---------------|------------------------------|-5--------------| 
Eb|-----------|-3---------------|------------------------------|-3--------------| 

eb|------------------------------|-2-------------|-2-2-2/3-3--3--3-|-3----------| 
Bb|------------------------------|-3-------------|-4-4-4/5-5--5--5-|-3----------| 
Gb|------------------------------|-2-------------|-4-4-4/5-5--5--5-|-4----------| 
Db|------------------------------|-0-------------|-4-4-4/5-5--5--5-|-5----------| 
Ab|------------------------------|---------------|-2-2-2/3-3--3--3-|-5----------| 
Eb|------------------------------|---------------|-2-2-2/3-3--3--3-|-3----------| 

eb|---------------------------|-3---------------------------------|-3-----------| 
Bb|---------------------------|-5---------------------------------|-3-----------| 
Gb|---------------------------|-5---------------------------------|-4-----------| 
Db|---------------------------|-5---------------------------------|-5-----------| 
Ab|---------------------------|-3---------------------------------|-5-----------| 
Eb|---------------------------|-3---------------------------------|-3-----------| 

eb|----------------------|-2--------|-3----------------------|-3----------------| 
Bb|----------------------|-3--------|-3----------------------|-5----------------| 
Gb|----------------------|-2--------|-4----------------------|-5----------------| 
Db|----------------------|-0--------|-5----------------------|-5----------------| 
Ab|----------------------|----------|-5----------------------|-3----------------| 
Eb|----------------------|----------|-3----------------------|-3----------------| 

eb|----------------------|-------------------------------------|-2--------------| 
Bb|----------------------|-------------------------------------|-3--------------| 
Gb|----------------------|-0-----------------------------------|-2--------------| 
Db|----------------------|-2-----------------------------------|-0--------------| 
Ab|----------------------|-2-----------------------------------|----------------| 
Eb|----------------------|-0-----------------------------------|----------------| 

eb|------------------|-3----------------------------|-3-------------------------| 
Bb|------------------|-3----------------------------|-5-------------------------| 
Gb|------------------|-4----------------------------|-5-------------------------| 
Db|------------------|-5----------------------------|-5-------------------------| 
Ab|------------------|-5----------------------------|-3-------------------------| 
Eb|------------------|-3----------------------------|-3-------------------------| 

eb|-----------|--------------------------|-3---------------|-3------------------| 
Bb|-----------|--------------------------|-2---------------|-3------------------| 
Gb|-----------|-0------------------------|-3---------------|-4------------------| 
Db|-----------|-2------------------------|-0---------------|-5------------------| 
Ab|-----------|-2------------------------|-----------------|-5------------------| 
Eb|-----------|-0------------------------|-----------------|-3------------------| 

eb|----3------------------------|-----------------|-3------------|-2------------| 
Bb|----5------------------------|-----------------|-3------------|-3------------| 
Gb|----5------------------------|-0---------------|-4------------|-2------------| 
Db|----5------------------------|-2---------------|-5------------|-0------------| 
Ab|----3------------------------|-2---------------|-5------------|--------------| 
Eb|----3------------------------|-0---------------|-3------------|--------------| 

eb|----3-----|-2---------|-3----|-2---------|-3---------------------------------| 
Bb|----3-----|-3---------|-3----|-3---------|-3---------------------------------| 
Gb|----4-----|-2---------|-4----|-2---------|-4---------------------------------| 
Db|----5-----|-0---------|-5----|-0---------|-5---------------------------------| 
Ab|----5-----|-----------|-5----|-----------|-5---------------------------------| 
Eb|----3-----|-----------|-3----|-----------|-3---------------------------------| 

eb|----2----------|-3----------------------------|-3---------------|------------| 
Bb|----3----------|-3----------------------------|-5---------------|------------| 
Gb|----2----------|-4----------------------------|-5---------------|-0----------| 
Db|----0----------|-5----------------------------|-5---------------|-2----------| 
Ab|---------------|-5----------------------------|-3---------------|-2----------| 
Eb|---------------|-3----------------------------|-3---------------|-0----------| 

eb|----3----|---------------|-3------------|-2-----|------------|-3-------------| 
Bb|----5----|---------------|-5------------|-3----m|------------|-3-------------| 
Gb|----5----|-0-------------|-5------------|-2----u|------------|-4-------------| 
Db|----5----|-2-------------|-5------------|-0----t|------------|-5-------------| 
Ab|----3----|-2-------------|-3------------|------e|------------|-5-------------| 
Eb|----3----|-0-------------|-3------------|-------|------------|-3-------------| 

eb|---------------|-3-------------------------|-3------------|------------------| 
Bb|---------------|-5-------------------------|-3------------|------------------| 
Gb|---------------|-5-------------------------|-4------------|-0----------------| 
Db|---------------|-5-------------------------|-5------------|-2----------------| 
Ab|---------------|-3-------------------------|-5------------|-2----------------| 
Eb|---------------|-3-------------------------|-3------------|-0----------------| 

eb|-----------|-3-----------|-3----------------------------------------|-3------| 
Bb|-----------|-5-----------|-3----------------------------------------|-5------| 
Gb|-----------|-5-----------|-4----------------------------------------|-5------| 
Db|-----------|-5-----------|-5----------------------------------------|-5------| 
Ab|-----------|-3-----------|-5----------------------------------------|-3------| 
Eb|-----------|-3-----------|-3----------------------------------------|-3------| 

eb|-------------|-3---------------------|-3--------|
Bb|-------------|-3---------------------|-5--------|
Gb|-------------|-4---------------------|-5--------|
Db|-------------|-5---------------------|-5--------|
Ab|-------------|-5---------------------|-3--------|
Eb|-------------|-3---------------------|-3--------|





Comments


Popular Dashboard Confessional tabs & chords
Blame It On The Changes Chords
Heaven Here Chords
So Long So Long 1 Chords
The Good Fight Chords
Age Six Racer Tabs
Bend And Not Break Tabs
Best Deceptions 4 Tabs
So Long Sweet Summer 2 Tabs
Saints And Sailors Ukulele
So Long So Long Ukulele


Song lyrics



↑ Back to top | Tablatures and chords are parodies/interpretations of the original songs. You may use it for private study, scholarship, research or language learning purposes only
© 2014 AZChords.com Contact us | Privacy policy | DMCA | Add/correct tabs | Request tabs | Top 50 tabs