» » »

Am I Missing Tabs (ver.1)

Artists:  A B C D E F G H I J K L M N O P Q R S T U V W X Y Z # 

Am I Missing Tabs (ver.1)

Dashboard Confessional
Rating:
3/5 (2 votes)

Hard to play? Try these video lessons and learn fast.
                
Tuning: FADGCe ------> Down A Half Step (E Ab Db Gb B eb)


There was not a single tab for this song, so I have dedicated a winter 
night to tab this out. I have recently seen them in concert. It was 
fantastic. Anyhoo, this is pretty accurate sounding to me. Enjoy.


Verse:

eb:--0----------------0----------------0---------------0----------------|
B :--0----------------0----------------0---------------0----------------|
Gb:--5----------------4----------------9---------------4----------------|
Db:--5----------------5----------------10--------------5----------------|
Ab:--3----------------3----------------8---------------3----------------|
E :------------------------------------0--------------------------------|

eb:-------0-------0-------0-------0--------0-------0-------0-------0----|
B :-----0---0---0---0---0---0---0---0----0---0---0---0---0---0---0---0--|
Gb:--10-------9-------4-------5-------10-------9-------4-------5--------|
Db:---------------------------------------------------------------------|
Ab:---------------------------------------------------------------------|
E :---------------------------------------------------------------------|

Sharp disaster in a fresh new coma. Was it worth it when it was over?

eb:--0----------------0----------------0--------------------------------|
B :--0----------------0----------------0--------------------------------|
Gb:--5----------------4----------------9--------------------------------|
Db:--5----------------5----------------10-------------------------------|
Ab:--3----------------3----------------8--------------------------------|
E :------------------------------------0--------------------------------|

eb:-------0-------0-------0-------0----------0-------0-----0-------0----|
B :-----0---0---0---0---0---0---0---0------0-------------0-------0------|
Gb:--10-------9-------4-------5--------5/7-------7/9---5-----5/7--------|
Db:---------------------------------------------------------------------|
Ab:---------------------------------------------------------------------|
E :---------------------------------------------------------------------|

Proving yourself right, you'd make the biggest noise. 

eb:--0----------------0----------------0---------------0----------------|
B :--0----------------0----------------0---------------0----------------|
Gb:--5----------------4----------------9---------------4----------------|
Db:--5----------------5----------------10--------------5----------------|
Ab:--3----------------3----------------8---------------3----------------|
E :------------------------------------0--------------------------------|

eb:-------0-------0-------0-------0--------0-------0-------0-------0----|
B :-----0---0---0---0---0---0---0---0----0---0---0---0---0---0---0---0--|
Gb:--10-------9-------4-------5-------10-------9-------4-------5--------|
Db:---------------------------------------------------------------------|
Ab:---------------------------------------------------------------------|
E :---------------------------------------------------------------------|

Well, i'd lock my hands behind my head, I'd cover my heart and hit the deck

eb:--0----------------0----------------0--------------------------------|
B :--0----------------0----------------0--------------------------------|
Gb:--5----------------4----------------9--------------------------------|
Db:--5----------------5----------------10-------------------------------|
Ab:--3----------------3----------------8--------------------------------|
E :------------------------------------0--------------------------------|

eb:-------0-------0-------0-------0----------0-------0-----0-------0----|
B :-----0---0---0---0---0---0---0---0------0-------------0-------0------|
Gb:--10-------9-------4-------5--------5/7-------7/9---5-----5/7--------|
Db:---------------------------------------------------------------------|
Ab:---------------------------------------------------------------------|
E :---------------------------------------------------------------------|

I'd brace myself for the impact if I were you. 

Chorus:

eb:--0--------------------------------0---------------0---0-------------|
B :--0--------------------------------0---------------0---0-------------|
Gb:--5--------------------------------2---------------2---2-------------|
Db:--5--------------------------------3---------------0---3-------------|
Ab:--0--------------------------------3---------------3---3-------------|
E :-----------------------------------0---------------0---0-------------|

eb:------3-------3-------0--------0---------0-----0-----0-------0-------|
B :----0---0---0---0---0---0----0---0-----0-----------0-------0---------|
Gb:--5-------5-------9-------10-------5/7-----7/9---5-----5/7-----------|
Db:---------------------------------------------------------------------|
Ab:---------------------------------------------------------------------|
E :---------------------------------------------------------------------|

(It's a long wait) is there anything
(For an answer) worth looking for
(Is there any news) worth loving for
(Is there any word) worth lying for

eb:--0-------0-------0-------0--------0---------------0---0-------------|
B :--0-------0-------0-------0--------0---------------0---0-------------|
Gb:--5-------5-------5-------5--------2---------------2---2-------------|
Db:--5-------5-------5-------5--------3---------------0---3-------------|
Ab:--0-------2-------3-------5--------3---------------3---3-------------|
E :-----------------------------------0---------------0---0-------------|

eb:------3-------3-------0--------0---------0-----0-----0-------0-------|
B :----0---0---0---0---0---0----0---0-----0-----------0-------0---------|
Gb:--5-------5-------9-------10-------5/7-----7/9---5-----5/7-----------|
Db:---------------------------------------------------------------------|
Ab:---------------------------------------------------------------------|
E :---------------------------------------------------------------------|

(Is there trauma) is there anything
(Or a struggle) worth waiting for
(Am I missing) worth living for
(Was the body found) worth dying for

eb:------3-----3-----0------0-----3-----3-----0------0------------------|
B :----0-----0-----0------0-----0-----0-----0------0--------------------|
Gb:--5-----5-----9-----10-----5-----5-----9-----10----------------------|
Db:---------------------------------------------------------------------|
Ab:---------------------------------------------------------------------|
E :---------------------------------------------------------------------|



Repeat Verse
Repeat Chorus
Repeat Verse x2
Repeat Chorus


Ending: Repeated Many Times

eb:------3-----3-----0------0-----3-----3-----0------0------------------|
B :----0-----0-----0------0-----0-----0-----0------0--------------------|
Gb:--5-----5-----9-----10-----5-----5-----9-----10----------------------|
Db:---------------------------------------------------------------------|
Ab:---------------------------------------------------------------------|
E :---------------------------------------------------------------------|
            
Hard to play? Try these video lessons and learn fast. | Correct




comments powered by Disqus
↑ Back to top | Tablatures and chords are parodies/interpretations of the original songs. You may use it for private study, scholarship, research or language learning purposes only