>
 >
Am I Missing

Am I Missing Bass Tabs

Dashboard Confessional - Am I Missing chords, tabs, tablatures, lyrics

Guitar lessons | Add/correct | Request | Top 50 tabs Artists:  A B C D E F G H I J K L M N O P Q R S T U V W X Y Z 0-9

Am I Missing Bass Tabs – Dashboard Confessional

CD, Sheet music, Poster

Do you like Am I Missing? Share with your friends now
Bass TabsTabs
-------------------------------------------------------------------------------
			     Am I Missing – Dashboard Confessional
-------------------------------------------------------------------------------

Tuning: Standard (E A D G)

Viewer’s Note: The numbers under the staffs represents the timing.  If the number is in 
you don’t play on that beat...easy enough!

1st Verse
          /-----------------------------------\------------------------|
G|/4~~~~~HOLD~~~~~|4~~~~~~~~~~~~~~~|4~~~~~~~~~~~~~~~|------------------|
D|----------------|----------------|----------------|--4-2-1-----------|
A|----------------|----------------|----------------|--------4---1-----|
E|----------------|----------------|----------------|------------------|
   1  (2   3   4)  (2)             (3)                 + 2 + 3   4


G|----------------|----------------|----------------|----------------|
D|----------------|----------------|----------------|----------------|
A|2-------2-------|4-------4-------|7-------7-------|6-------6-------|
E|------2-------2-|------2-------2-|------7-------7-|------7-------0-|
  1  (2)+ 3  (4)+  1  (2)+ 3  (4)+  1  (2)+ 3  (4)+  1  (2)+ 3  (4)+


G|----------------|----------------|----------------|----------------|
D|----------------|----------------|----------------|----------------|
A|2---2---2---2---|2---2---2---2---|2---2---2---2---|2---2---2---2---|
E|----------------|----------------|----------------|----------------| x2
  1   2   3   4    1   2  etc...

Chorus
G|----------------|----------------|----------------|----------------|
D|----------------|----------------|----------------|----------------|
A|----------------|----------------|7-----7-6-----6-|4-----4---------|
E|4~~~~~~~~~~~~~~~|~~~~~~~~~~~~~~~~|----------------|--------7-----7-|
  1  (2   3   4    1   2   3   4)   1  (2)+ 3  (4)+  1  (2)+ 3  (4)+


G|----------------|----------------|----------------|----------------|
D|----------------|----------------|----------------|----------------|
A|----------------|--------4-----4-|7-------------4/|7-7-7-7-6-6-6-6-|
E|4-----4-6-----6-|7-----7---------|----------------|----------------|
  1  (2)+ 3  (4)+  1  (2)+ 3  (4)+  1          (4)+  1 + 2 + 3 + 4 +

G|----------------|----------------|----------------|----------------|
D|----------------|----------------|----------------|----------------|
A|----------------|----------------|7-----7-6-----6-|4-----4---------|
E|4~~~~~~~~~~~~~~~|~~~~~~~~~~~~~~~~|----------------|--------7-----7-|
  1  (2   3   4    1   2   3   4)   1  (2)+ 3  (4)+  1  (2)+ 3  (4)+


G|----------------|----------------|----------------|----------------|
D|----------------|----------------|----------------|----------------|
A|----------------|--------4-----4-|--------4-----4-|6-----6-7-----7-|
E|4-----4-6-----6-|7-----7---------|7-----7---------|----------------|
  1  (2)+ 3  (4)+  etc...


G|----------------|----------------|----------------|----------------|
D|----------------|----------------|----------------|----------------|
A|----------------|----------------|----------------|----------------|
E|9~~~~~~~~~~~~~~~|~~~~~~~~~~~~~~9/|2~~~~~~~~~~~~~~~|~~~~~~~~~~~~~~~~|


Verse Two
G|----------------|----------------|
D|----------------|----------------|
A|2---2---2---2---|2---2---2---2---|
E|--2-----------2-|----------2-----| x2
  1 + 2   3   4 +  1   2   3 + 4

G|----------------|----------------|----------------|----------------|
D|----------------|----------------|----------------|----------------|
A|2-------2-------|4-------4-------|7-------7-------|6-------6-------|
E|------2-------2-|------2-------2-|------7-------7-|------7-------0-|
  1  (2)+ 3  (4)+  1  etc...

REPEAT ENTIRE PHRASE x2

Outro
G|----------------|----------------|----------------|----------------|
D|4~~~~~~~~~~~~~~~|1-------2-------|----------------|--------2-------|
A|----------------|----------------|2---------------|4---------------|
E|----------------|----------------|----------------|----------------|
  1  (2   3   4)   1       3        1                1       3
G|----------------|----------------|----------------|----------------|
D|----------------|--------2-------|----------------|--------2-------|
A|2---------------|4---------------|2---------------|4---------------|
E|----------------|----------------|----------------|----------------|
  1                1       3        1                1       3
G|----------------|----------------|----------------|
D|----------------|1-------2-------|4---------------|
A|2---------------|----------------|----------------|
E|----------------|----------------|----------------|
  1                1       3        1
REPEAT OUTRO 2x

| /  slide up
| \  slide down
| h  hammer-on
| p  pull-off
| ~  vibrato
| +  harmonic
| x  Mute note

PLEASE SEND FEEDBACK!





Comments


Popular Dashboard Confessional tabs & chords
Best Deceptions 2 Chords
Ender Will Save Us All 1 Chords
Hands Down 7 Chords
Tonight Ill Take What I Can Get Chords
Tonight Ill Take What I Can Get 3 Chords
Carry This Picture Tabs
Dusk Aand Summer Ukulele
Hands Down Ukulele
Several Ways To Die Trying Ukulele
Tonight Ill Take What I Can Get 2 Ukulele


Song lyrics



↑ Back to top | Tablatures and chords are parodies/interpretations of the original songs. You may use it for private study, scholarship, research or language learning purposes only
© 2014 AZChords.com Contact us | Privacy policy | DMCA | Add/correct tabs | Request tabs | Top 50 tabs