>
 >
The Sun Fired Blanks

The Sun Fired Blanks Guitar Tabs

Dark Tranquillity - The Sun Fired Blanks chords, tabs, tablatures, lyrics

Guitar lessons | Add/correct | Request | Top 50 tabs Artists:  A B C D E F G H I J K L M N O P Q R S T U V W X Y Z 0-9

The Sun Fired Blanks Guitar Tabs – Dark Tranquillity

CD, Sheet music, Poster

Do you like The Sun Fired Blanks? Share with your friends now
Bass TabsTabsTabs v2
The Sun Fired Blanks by Dark Tranquillity

opening

|-12-0-0-0-12-0-0-0-0-0-10-0-12-0-0-0-|-8-0-7-0-0-0-8-0-7-0-0-0-10-0-0-0-|
|-------------------------------------|----------------------------------|
|-------------------------------------|----------------------------------|
|-------------------------------------|----------------------------------|
|-------------------------------------|----------------------------------|
|-------------------------------------|----------------------------------|
|                                     |                                  |
|-------------------------------------|----------------------------------|
|-------------------------------------|----------------------------------|
|-------------------------------------|-2------------------------4-------|
|-2-----------------------------------|-2------------------------4-------|
|-2-----------------------------------|-0------------------------2-------|
|-0-----------------------------------|----------------------------------|


|-12-0-0-0-12-0-0-0-0-0-10-0-12-0-0-0-|-8-0-7-0-0-0-10-8-7---------------|
|-------------------------------------|--------------------8-------------|
|-------------------------------------|----------------------9-~~--------|
|-------------------------------------|----------------------------------|
|-------------------------------------|----------------------------------|
|-------------------------------------|----------------------------------|
|                                     |                                  |
|-------------------------------------|----------------------------------|
|-------------------------------------|----------------------------------|
|-5-----------------------------------|-2--------------------------------|
|-5-----------------------------------|-2--------------5-----------------|
|-3-----------------------------------|-0--------------5-----------------|
|-------------------------------------|----------------3-----------------|


|-12-0-0-0-12-0-0-0-0-0-10-0-12-0-0-0-|-15-0-14-0-0-0-15-0-14-0-0-0------|
|-------------------------------------|-----------------------------15~--|
|-------------------------------------|----------------------------------|
|-------------------------------------|----------------------------------|
|-------------------------------------|----------------------------------|
|-------------------------------------|----------------------------------|
|                                     |                                  |
|-------------------------------------|----------------------------------|
|-------------------------------------|----------------------------------|
|-------------------------------------|-2-------------4------------------|
|-2-----------------------------------|-2-------------4------------------|
|-2-----------------------------------|-0-------------2------------------|
|-0-----------------------------------|----------------------------------|


|-12-0-0-0-12-0-0-0-0-0-10-0-12-0-0-0-|-7-0-0-0-7-0-0-0-0-0-5-0-7-0-0-0--|
|-------------------------------------|----------------------------------|
|-------------------------------------|----------------------------------|
|-------------------------------------|----------------------------------|
|-------------------------------------|----------------------------------|
|-------------------------------------|----------------------------------|
|                                     |                                  |
|-------------------------------------|----------------------------------|
|-------------------------------------|----------------------------------|
|-5-----------------------------------|-2--------------------------------|
|-5-----------------------------------|-2-------------5------------------|
|-3---3---3---3---3---5---3---2-------|-0---0---0---0-5------------------|
|-------------------------------------|---------------3---3---3---3------|


Riff 2
|-12-0-0-0-12-0-0-0-0-0-10-0-12-0-0-0-|-8-0-7-0-0-0-8-0-7-0-0-0-10-0-0-0-|
|-------------------------------------|----------------------------------|
|-------------------------------------|----------------------------------|
|-------------------------------------|----------------------------------|
|-------------------------------------|----------------------------------|
|-------------------------------------|----------------------------------|
|                                     |                                  |
|-------------------------------------|----------------------------------|
|-------------------------------------|----------------------------------|
|------------------------h------------|----------------------------------|
|-2-------2-------------0---2---------|-5---4--------5---4------4--------|
|-2-------2-------------0---2---------|-3---2-0--0---3---2-0-0--2--------|
|-0---0---0---0---0-----0---0---0-----|----------------------------------|

|-12-0-0-0-12-0-0-0-0-0-10-0-12-0-0-0-|-8-0-7-0-0-0-10-8-7---------------|
|-------------------------------------|--------------------8-------------|
|-------------------------------------|----------------------9-~~--------|
|-------------------------------------|----------------------------------|
|-------------------------------------|----------------------------------|
|-------------------------------------|----------------------------------|
|                                     |                                  |
|-------------------------------------|----------------------------------|
|-------------------------------------|----------------------------------|
|-------------------------------------|----------------------------------|
|-5-------4--------------4---5--------|-5---4----------------------------|
|-3--0--0-2--0--0--0--0--2---3--------|-3---2-------7-5-----5------------|
|-------------------------------------|-------0--0--5-3-0-0-3------------|


|-12-0-0-0-12-0-0-0-0-0-10-0-12-0-0-0-|-15-0-14-0-0-0-15-0-14-0-0-0------|
|-------------------------------------|-----------------------------15~--|
|-------------------------------------|----------------------------------|
|-------------------------------------|----------------------------------|
|-------------------------------------|----------------------------------|
|-------------------------------------|----------------------------------|
|                                     |                                  |               
                                                       |
|-------------------------------------|----------------------------------|
|-------------------------------------|----------------------------------|
|------------------------h------------|----------------------------------|
|-2-------2-------------0---2---------|-5---4--------5---4------4--------|
|-2-------2-------------0---2---------|-3---2-0--0---3---2-0-0--2--------|
|-0---0---0---0---0-----0---0---0-----|----------------------------------|


|-12-0-0-0-12-0-0-0-0-0-10-0-12-0-0-0-|-7-0-0-0-7-0-0-0-0-0-5-0-7-0-0-0--|
|-------------------------------------|----------------------------------|
|-------------------------------------|----------------------------------|
|-------------------------------------|----------------------------------|
|-------------------------------------|----------------------------------|
|-------------------------------------|----------------------------------|
|                                     |                                  |
|-------------------------------------|----------------------------------|
|-------------------------------------|----------------------------------|
|-------------------------------------|----------------------------------|
|-5-------4--------------4---5--------|-5------4-------------------------|
|-3--0--0-2--0--0--0--0--2---3--------|-3------2--------7--5-----5-------|
|-------------------------------------|-----------0--0--5--3-0-0-3-------|


Riff 3 (Both gtrs)
|---------------------|--------------------|
|---------------------|--------------------|
|----------------h----|--------------------|
|-2---2---------0-2---|-5-4---5-4----------|
|-2---2---------0-2---|-3-2-0-3-2-0-0-2-~--|
|-0-0-0-0-0-0-0-0-----|--------------------|

|---------------------|--------------------|---------------|
|---------------------|--------------------|---------------|
|----------------h----|--------------------|---------------|
|-2---2---------0-2---|-5-4---5-4----------|-5-4------2----|
|-2---2---------0-2---|-3-2-0-3-2-0-0-2-~--|-3-2------2----|
|-0-0-0-0-0-0-0-0-----|--------------------|------3-2-0----|


RIff 4 (both gtrs)
|-------------------------------------|----------------------------------|
|-------------------------------------|----------------------------------|
|-------------------------------------|----------------------------------|
|-9----------9----------11-12--11-----|------------------9---7-----------|
|-7--7-7-7-7-7--7-7-7-7-9--10--9------|-7--7-7-7-7-7-7---10--9-----------|
|-------------------------------------|----------------------------------|

|-------------------------------------|----------------------------------|
|-------------------------------------|----------------------------------|
|-------------------------------------|----------------------------------|
|-9--------9----------11-12--11-------|----------------------------------|
|-7--7-7-7-7--7-7-7-7-9--10--9--------|-9--------------------------------|
|-------------------------------------|-7--7-7-7-7--8---5--3--7--5--3--2-|

Riff 5
|--------12---------------12-----|-------p---h--------p--h-----|---h------------|
|----10------12-------10------12-|-13--12--10--12---10--8--10--|-10--12--8-7----|
|-9----------------9-------------|-----------------------------|----------------|
|--------------------------------|-----------------------------|----------------|
|--------------------------------|-----------------------------|----------------| X 2
|--------------------------------|-----------------------------|----------------|
|                                |                             |                |
|--------------------------------|-----------------------------|----------------|
|--------------------------------|-----------------------------|----------------|
|--------------------------------|-------------------------7---|----------------|
|-2----------------2----------4--|-5-----------2-----------5---|----------------|
|-2----------------2----------2--|-3-----------0---------------|----------5-4---|
|-0----------------0-------------|-----------------------------|----------3-2---|

|--------12---------------12-----|-------p---h--------p--h---h------------|
|----10------12-------10------12-|-13--12--10--12---10--8--10--12--8-7----|
|-9----------------9-------------|----------------------------------------|
|--------------------------------|----------------------------------------|
|--------------------------------|----------------------------------------|
|--------------------------------|----------------------------------------|
|                                |
|--------------------------------|
|--------------------------------|
|--------------------------------|
|-2----------------2----------4--|
|-2----------------2----------2--|
|-0----------------0-------------|


Riff 6 - the lead part this is the same as riff 5 but picked faster


|--------------------------------|----------------------------------|
|--------------------------------|----------------------------------|
|--------------------------------|----------------------------------|
|-7------------------------------|-2------------2-------------------|
|-5-5-5-5-5-5--5---5----4--------|-2------------2------4-5--4-------|
|------------------3----2--------|-0------0-0-0-0--0-0-2-3--2-------|

|--------------------------------|-------------------------------|
|--------------------------------|-------------------------------|
|--------------------------------|-------------------------------|
|-7------------------------------|-5--------5----2-----2-/-7-----|
|-5-5-5-5-5-5--5---5----4--------|-3----3-3-3----0--0--0-/-5-----|
|------------------3----2--------|-------------------------------|

|--------------------------------|----------------------------|
|--------------------------------|----------------------------|
|--------------------------------|----------------------------|
|-2------------2-----------------|-2------------2-------------|
|-2------------2------4-5--4-----|-2------------2------4-5--4-|
|-0------0-0-0-0--0-0-2-3--2-----|-0------0-0-0-0--0-0-2-3--2-|

|--------------------------------|--------------------------------|
|--------------------------------|--------------------------------|
|--------------------------------|--------------------------------|
|-5--------5----2-----2-/-7------|-7------------------------------|
|-3----3-3-3----0--0--0-/-5------|-5-5-5-5-5-5--5---5----4--------|
|--------------------------------|------------------3----2--------|


Riff 6

|-----------------|--------------------|----------------|--------------------|
|-----------------|--------------------|----------------|----------------17--|
|----9--11--12--9-|----9--11--12--14---|----12--14--16--|----12--14--16------|
|-----------------|--------------------|----------------|--------------------|
|-----------------|--------------------|----------------|--------------------|
|-----------------|--------------------|----------------|--------------------|
|-----------------|--------------------|----------------|--------------------|
|                 |                    |                |                    | X 2
|-----------------|--------------------|----------------|--------------------|
|-----------------|--------------------|----------------|--------------------|
|-----------------|--------------------|----------------|--------------------|
|-----------------|--------------------|----------------|----------------5---|
|-2-2-------------|-2-2-------------7--|-5-5------------|-5-5------------5---|
|-2-2-------------|-2-2-------------7--|-5-5------------|-5-5------------3---|
|-0-0-------------|-0-0-------------5--|-3-3------------|-3-3----------------|


(Hold out the chords the second time)

|-----------------|--------------------|----------------|--------------------|
|-----------------|--------------------|----------------|----------------17--|
|----9--11--12--9-|----9--11--12--14---|----12--14--16--|----12--14--16------|
|-----------------|--------------------|----------------|--------------------|
|-----------------|--------------------|----------------|--------------------|
|-----------------|--------------------|----------------|--------------------|
|-----------------|--------------------|----------------|--------------------|
|                 |                    |                |                    | X 2
|-----------------|--------------------|----------------|--------------------|
|-----------------|--------------------|----------------|--------------------|
|-----------------|--------------------|----------------|--------------------|
|-----------------|--------------------|----------------|----------------5---|
|-2-2-------------|-2-2-------------7--|-5-5------------|-5-5------------5---|
|-2-2-------------|-2-2-------------7--|-5-5------------|-5-5------------3---|
|-0-0-------------|-0-0-------------5--|-3-3------------|-3-3----------------|


Riff 7 (Clean Interlude)

|--------------------h--7--|--------------------h--7--|--------------------------|--------------------------|
|----------7-----7--7-8-8--|----------7-----7--7-8-8--|-----------10-----10--12--|-----------10-----10--12--|

X 2
|----9---------------------|----9---------------------|-----9--------------------|-----9--------------------|
|-7------------------------|-7------------------------|-10-----10----------------|-10-----10----------------|
|--------------------------|--------------------------|--------------------------|--------------------------|

|-----------3-----------|-----------3-------------|-----------3-----------|-------2-----3-----2-----|
|-----5-----------5-----|-----5-----------5-------|-----5-----------5-----|----------3-----3-----3--|
|--------4-----4-----4--|--------4-----4-----4----|--------4-----4-----4--|-------------------------|
|--2--------------------|--2----------------------|-----------------------|--0----------------------|
|-----------------------|-------------------------|--3--------------------|-------------------------|
|-----------------------|-------------------------|-----------------------|-------------------------|

|-----------3-----------|-----------3-------------|-----------3-----------|---------------h---------|
|-----5-----------5-----|-----5-----------5-------|-----5-----------5-----|-------3-----2--3--3-----|
|--------4-----4-----4--|--------4-----4-----4----|--------4-----4-----4--|----------2-----------2--|
|--2--------------------|--2----------------------|-----------------------|--0----------------------|
|-----------------------|-------------------------|--3--------------------|-------------------------|
|-----------------------|-------------------------|-----------------------|-------------------------|

|-----------3-----------|-----------3-------------|-----------3-----------|---------------h---------|
|-----5-----------5-----|-----5-----------5-------|-----5-----------5-----|-------3-----2--3--3-----|
|--------4-----4-----4--|--------4-----4-----4----|--------4-----4-----4--|----------2-----------2--|
|--2--------------------|--2----------------------|-----------------------|--0----------------------|
|-----------------------|-------------------------|--3--------------------|-------------------------|
|-----------------------|-------------------------|-----------------------|-------------------------|

|-----------3-----------|-----------3-------------|-----------3-----------|-------2-----3-----2-----|
|-----5-----------5-----|-----5-----------5-------|-----5-----------5-----|----------3-----3-----3--|
|--------4-----4-----4--|--------4-----4-----4----|--------4-----4-----4--|-------------------------|
|--2--------------------|--2----------------------|-----------------------|--0----------------------|
|-----------------------|-------------------------|--3--------------------|-------------------------|
|-----------------------|-------------------------|-----------------------|-------------------------|

Riff 8 (Under Solo)

(Clean)

|-------------------------------------|-------------------------------------|
|--7--------7--------7--------7-------|-3--------3--------5--------5--------|
|--9--------9--------9--------9-------|-5--------5--------7--------7--------|
|--9--9--9--9--9--9--9--9--9--9--9--9-|-5--5--5--5--5--5--7--7--7--7--7--7--|
|--7--7--7--7--7--7--7--7--7--7--7--7-|-3--3--3--3--3--3--5--5--5--5--5--5--|
|-------------------------------------|-------------------------------------|
                                       (Dist)
|-------------------------------------|-------------------------------------|
|--7--------7--------7--------7-------|-------------------------------------|
|--9--------9--------9--------9-------|-------------------------------------|
|--9--9--9--9--9--9--9--9--9--9--9--9-|-5--5--5--5--5--5--5--5--5--5--5--5--|
|--7--7--7--7--7--7--7--7--7--7--7--7-|-3--3--3--3--3--3--3--3--3--3--3--3--|
|-------------------------------------|-------------------------------------|

|---------------------------------|
|---------------------------------|
|---------------------------------|
|-7--7--7--7--7--7----------------|
|-5--5--5--5--5--5--5------4------|
|-------------------3------2------|

Solo

|-------------|---------------|---------------|-----|
|-------------|---------------|---------------|-----|
|-------------|---------------|---------------|-----|
|-------------|---------------|---------------|-----|
|---7--9-9-10-|-(10)--10--12--|-9---9--10--9--|--7--|
|-------------|---------------|---------------|-----|

|-------------|--------------|----------------|----------------|
|-------------|--------------|----------------|----------------|
|-------------|--------------|----------------|----------------|
|-------------|-9-----10--9--|-7--7--9--10----|--9---9---------|
|---7--9--10--|--------------|----------------|---------10--9--|
|-------------|--------------|----------------|----------------|

|-------------|--------------|-------------|---------------|
|-------------|--------------|-------------|---------------|
|-------------|--------------|-------------|---------------|
|-------------|--9-9---------|--7---10-9---|--9---9--------|
|--7--7-9-10--|-------9--10--|-------------|---------9--10-|
|-------------|--------------|-------------|---------------|

|----------------|---------------------|
|----------------|-13--12--10----------|
|----------------|--------------12--11-|
|----------------|---------------------|
|-7--9--10-10----|---------------------|
|----------------|---------------------|





Comments


Popular Dark Tranquillity tabs & chords
Auctioned Bass Tabs
Away, Delight, Away Bass Tabs
Edenspring 1 Bass Tabs
There In Bass Tabs
A Bolt Of Blazing Gold Tabs
Lost To Apathy Tabs
The Wonders At Your Feet Tabs
Tidal Tantrum Tabs
To A Bitter Halt Tabs
With The Flaming Shades Of Fall Tabs


Song lyrics



↑ Back to top | Tablatures and chords are parodies/interpretations of the original songs. You may use it for private study, scholarship, research or language learning purposes only
© 2014 AZChords.com Contact us | Privacy policy | DMCA | Add/correct tabs | Request tabs | Top 50 tabs