» » »

Dark Tranquillity, The Sun Fired Blanks Bass tabs (ver.1)

Artists:  A B C D E F G H I J K L M N O P Q R S T U V W X Y Z # 

The Sun Fired Blanks Bass tabs (ver.1)

Dark Tranquillity Tabs
Rating:
0/5 (0 votes)
The Sun Fired Blanks lessons Tabs too difficult? Try these video lessons and learn fast
                tune down

E ||-------------------|--------------------|-------------------|
B ||-------------------|--------------------|-------------------|
F#||-------------------|--0--------2--------|--3----------------|
C#||--0----------------|--------------------|-------------------|


                                                              
--------------------|-------------------|--------------------|
--------------------|-------------------|--------------------|
--0-----------------|-------------------|--0--------2--------|
-----------3--------|--0----------------|--------------------|


                                                      
--------------------------|--------------------------|
--------------------------|--------------------------|
--3--3--3--3--3--5--3--2--|--0--0--0--0--------------|
--------------------------|--------------3--3--3--3--|


                                                            
-----------------------------|-----------------------------|
-----------------------------|-----------------------------|
-------------------0h-2------|--3--2--0-0-3--2--0-0-2--0-0-|
--0--0--0--0-0-0-0-0-----0-0-|-----------------------------|


                                                            
------------------------------|----------------------------|
------------------------------|----------------------------|
--3--0-0-3--0-0-0-0-2--3--0-0-|--3--2----------------------|
------------------------------|--------0-0-5--3--0-0-3--0--|


                                                            
-----------------------------|-----------------------------|
-----------------------------|-----------------------------|
-------------------0h-2------|--3--2--0-0-3--2--0-0-2--0-0-|
--0--0--0--0-0-0-0-0-----0-0-|-----------------------------|


                                                            
------------------------------|----------------------------|
------------------------------|----------------------------|
--3--0-0-3--0-0-0-0-2--3--0-0-|--3--2----------------------|
------------------------------|--------0-0-5--3--0-0-3--0--|


                                                          
-----------------------------|---------------------------|
-----------------------------|---------------------------|
-------------------0h-2------|--3--2--0-0-3--2--0-0-2~---|
--0--0--0--0-0-0-0-0-----0-0-|---------------------------|


                                                          
-----------------------------|---------------------------|
-----------------------------|---------------------------|
-------------------0h-2------|--3--2--0-0-3--2--0-0-2~---|
--0--0--0--0-0-0-0-0-----0-0-|---------------------------|


                                                          
-----------------------------|---------------------------|
-----------------------------|---------------------------|
-------------------0h-2------|--3--2--0-0-3--2--0-0-2~---|
--0--0--0--0-0-0-0-0-----0-0-|---------------------------|


                                                          
-----------------------------|---------------------------|
-----------------------------|---------------------------|
-------------------0h-2------|--3--2--0-0-3--2--0-0-2~---|
--0--0--0--0-0-0-0-0-----0-0-|---------------------------|


                                                      
-----------------------------|-----------------------|
-----------------------------|-----------------------|
-------------------0h-2------|--3--2-----------------|
--0--0--0--0-0-0-0-0-----0-0-|--------3--2--0--------|


                                                                
|---------------------------------|----------------------------|
|*--------------------------------|----------------------------|
|*--7--7-7-7-7-7--7-7-7-7-9-10-9--|--7--7-7-7-7-7-7-10----9----|
|---------------------------------|----------------------------|


                                                                                
--------------------------------|------------------------------||--------------|
--------------------------------|-----------------------------*||--------------|
--7--7-7-7-7-7--7-7-7-7-9-10-9--|--2--2-2-2-2-2-2-3--2--------*||--2-----------|
--------------------------------|-----------------------5--3---||-----5--3--2--|


                                                            
-----------------------------|-----------------------------|
-----------------------------|-----------------------------|
-------------------0h-2------|--3--2--0-0-3--2--0-0-2--0-0-|
--0--0--0--0-0-0-0-0-----0-0-|-----------------------------|


                                                            
------------------------------|----------------------------|
------------------------------|----------------------------|
--3--0-0-3--0-0-0-0-2--3--0-0-|--3--2----------------------|
------------------------------|--------0-0-5--3--0-0-3--0--|


                                                            
-----------------------------|-----------------------------|
-----------------------------|-----------------------------|
-------------------0h-2------|--3--2--0-0-3--2--0-0-2--0-0-|
--0--0--0--0-0-0-0-0-----0-0-|-----------------------------|


                                                            
------------------------------|----------------------------|
------------------------------|----------------------------|
--3--0-0-3--0-0-0-0-2--3--0-0-|--3--2----------------------|
------------------------------|--------0-0-5--3--0-0-3--0--|


                                                              
--------------------------------|----------------------------|
--------------------------------|----------------------------|
--7--7-7-7-7-7--7-7-7-7-9-10-9--|--7--7-7-7-7-7-7-10----9----|
--------------------------------|----------------------------|


                                                               
--------------------------------|-----------------------------|
--------------------------------|-----------------------------|
--7--7-7-7-7-7--7-7-7-7-9-10-9--|--2--2-2-2-2-2-2-3--2--------|
--------------------------------|-----------------------5--3--|


                                                              
--------------------------------|----------------------------|
--------------------------------|----------------------------|
--7--7-7-7-7-7--7-7-7-7-9-10-9--|--7--7-7-7-7-7-7-10----9----|
--------------------------------|----------------------------|


                                                                
|--------------------|--------------------|--------------------|
|*-------------------|--------------------|--------------------|
|*-------------------|---------------2----|--3--------0--------|
|---0----------------|--0-----------------|--------------------|


                                                    
----------------------||---------------------------|
---------------------*||---------------------------|
--5------------------*||--5-5-5-5-5-5-5------------|
-----------3----2-----||-----------------3----2----|


                                                          
----------------------------|----------------------------|
----------------------------|----------------------------|
----------------------------|----------------------------|
--0-----0-0-0-0--0-0-2-3-2--|--0-----0-0-0-0--0-0-2-3-2--|


                                                       
--------------------------|---------------------------|
--------------------------|---------------------------|
--3----3-3-3--0--0--0/-5--|--5--5-5-5-5-5-5-----------|
--------------------------|-----------------3----2----|


                                                          
----------------------------|----------------------------|
----------------------------|----------------------------|
----------------------------|----------------------------|
--0-----0-0-0-0--0-0-2-3-2--|--0-----0-0-0-0--0-0-2-3-2--|


                                                       
--------------------------|---------------------------|
--------------------------|---------------------------|
--3----3-3-3--0--0--0/-5--|--5--5-5-5-5-5-5-----------|
--------------------------|-----------------3----2----|


                                                                
|---------------------------------|----------------------------|
|*--------------------------------|----------------------------|
|*--7--7-7-7-7-7--7-7-7-7-9-10-9--|--7--7-7-7-7-7-7-10----9----|
|---------------------------------|----------------------------|


                                                                                
--------------------------------|------------------------------||--------------|
--------------------------------|-----------------------------*||--------------|
--7--7-7-7-7-7--7-7-7-7-9-10-9--|--2--2-2-2-2-2-2-3--2--------*||--2-----------|
--------------------------------|-----------------------5--3---||-----5--3--2--|


                                                            
-----------------------------|-----------------------------|
-----------------------------|-----------------------------|
-------------------0h-2------|--3--2--0-0-3--2--0-0-2--0-0-|
--0--0--0--0-0-0-0-0-----0-0-|-----------------------------|


                                                            
------------------------------|----------------------------|
------------------------------|----------------------------|
--3--0-0-3--0-0-0-0-2--3--0-0-|--3--2----------------------|
------------------------------|--------0-0-5--3--0-0-3--0--|


                                                            
-----------------------------|-----------------------------|
-----------------------------|-----------------------------|
-------------------0h-2------|--3--2--0-0-3--2--0-0-2--0-0-|
--0--0--0--0-0-0-0-0-----0-0-|-----------------------------|


                                                            
------------------------------|----------------------------|
------------------------------|----------------------------|
--3--0-0-3--0-0-0-0-2--3--0-0-|--3--2----------------------|
------------------------------|--------0-0-5--3--0-0-3--0--|


                                                              
--------------------------------|----------------------------|
--------------------------------|----------------------------|
--7--7-7-7-7-7--7-7-7-7-9-10-9--|--7--7-7-7-7-7-7-10----9----|
--------------------------------|----------------------------|


                                                               
--------------------------------|-----------------------------|
--------------------------------|-----------------------------|
--7--7-7-7-7-7--7-7-7-7-9-10-9--|--2--2-2-2-2-2-2-3--2--------|
--------------------------------|-----------------------5--3--|


                                                              
--------------------------------|----------------------------|
--------------------------------|----------------------------|
--7--7-7-7-7-7--7-7-7-7-9-10-9--|--7--7-7-7-7-7-7-10----9----|
--------------------------------|----------------------------|


                                                                
--------------------|---------------------|--------------------|
--------------------|---------------------|--------------------|
--------------------|---------------------|--------------------|
--0--0--------------|--0--0----------5----|--3--3--------------|


                                                                 
---------------------|--------------------|---------------------|
---------------------|--------------------|---------------------|
--------------3------|--------------------|---------------------|
--3--3---------------|--0--0--------------|--0--0----------5----|


                                                                  
--------------------|---------------------||---------------------|
--------------------|---------------------||*--------------------|
--------------------|--------------3------||*--------------------|
--3--3--------------|--3--3---------------||---0--0--------------|


                                                                   
---------------------|--------------------|----------------------||
---------------------|--------------------|---------------------*||
---------------------|--------------------|--------------3------*||
--0--0----------5----|--3--3--------------|--3--3----------------||


                                                                    
---------------------||--------------------|-----------------------|
---------------------||*-------------------|-----------------------|
--------------3------||*--7----------------|--7--------7--5--7--9--|
--3--3---------------||---0----------------|--0--------------------|


                                                                     
--------------------|-----------------------||----------------------|
--------------------|--------------7--9----*||--------------7--9----|
--10----------------|----------10----------*||----------10----------|
--------------------|-----------------------||----------------------|


                                                             
-------------------|--------------------|-------------------|
-------------------|--------------------|-------------------|
--7----------------|--7------------7----|--3----------------|
-------------------|--------------------|-------------------|


                                                              
--------------------|-------------------|--------------------|
--------------------|-------------------|--------------------|
--5------------5----|--7----------------|--7------------7----|
--------------------|-------------------|--------------------|


                                                               
-------------------|----------------------|-------------------|
-------------------|----------------------|-------------------|
--3----------------|--5--------10----9----|--7----------------|
-------------------|----------------------|-------------------|


                                                              
--------------------|-------------------|--------------------|
--------------------|-------------------|--------------------|
--7------------7----|--3----------------|--5------------5----|
--------------------|-------------------|--------------------|


                                                             
-------------------|--------------------|-------------------|
-------------------|--------------------|-------------------|
--7----------------|--7------------7----|--3----------------|
-------------------|--------------------|-------------------|


                                                                             
----------------------|--------------------------|--------------------------|
----------------------|--------------------------|-----------------9--------|
--5--------10----9----|--7--------10----7--------|--7--------10-------------|
----------------------|--------------------------|--------------------------|


                                                                           
-------------------------|---------------------|--------------------------|
-----------5-------------|-----------5----4----|--------------------------|
--3-------------3--------|--5------------------|--7--------10----7--------|
-------------------------|---------------------|--------------------------|


                                                                  
--------------------------|--------------------------------------|
-----------------9--------|--------------------------------------|
--7--------10-------------|--3--3--3--3--3--3--3--3--3--3--3--3--|
--------------------------|--------------------------------------|


                                                                          
------------------------------||--------------------|--------------------|
------------------------------||*-------------------|--------------------|
--5--5--5--5--5--5------------||*-------------------|---------------2----|
--------------------3----2----||---0----------------|--0-----------------|


                                                                         
--------------------|----------------------||---------------------------|
--------------------|---------------------*||---------------------------|
--3--------0--------|--5------------------*||--5-5-5-5-5-5-5------------|
--------------------|-----------3----2-----||-----------------3----2----|


                                                          
----------------------------|----------------------------|
----------------------------|----------------------------|
----------------------------|----------------------------|
--0-----0-0-0-0--0-0-2-3-2--|--0-----0-0-0-0--0-0-2-3-2--|


                                                       
--------------------------|---------------------------|
--------------------------|---------------------------|
--3----3-3-3--0--0--0/-5--|--5--5-5-5-5-5-5-----------|
--------------------------|-----------------3----2----|


                                                          
----------------------------|----------------------------|
----------------------------|----------------------------|
----------------------------|----------------------------|
--0-----0-0-0-0--0-0-2-3-2--|--0-----0-0-0-0--0-0-2-3-2--|


                                                                            
--------------------------|---------------------------|--------------------|
--------------------------|---------------------------|--------------------|
--3----3-3-3--0--0--0/-5--|--5--5-5-5-5-5-5-----------|--2---2-------------|
--------------------------|-----------------3----2----|--0---0-------------|


                    
------------------||
------------------||
------------------||
------------------||
            

comments powered by Disqus
↑ Back to top | Dark Tranquillity Bass for The Sun Fired Blanks. Lyrics for acoustic guitar and electric guitar. Tablatures and chords are parodies/interpretations of the original songs. You may use it for private study, scholarship, research or language learning purposes only