» » »

Dark Throne, Transilvanian Hunger Bass tabs (ver.1)

Artists:  A B C D E F G H I J K L M N O P Q R S T U V W X Y Z # 

Transilvanian Hunger Bass tabs (ver.1)

Dark Throne Tabs
Rating:
0/5 (0 votes)
Transilvanian Hunger lessons Tabs too difficult? Try these video lessons and learn fast
                G||-----------------------------------|----------------------------------|
D||*----------------------------------|----------------------------------|
A||*--0-0-0-0-0-0-0-0-0-0-0-0-0-0-0-0-|--0-0-0-0-0-0-0-0-0-0-0-0-0-0-0-0-|
E||-----------------------------------|----------------------------------|


                                                                      7x
----------------------------------|-----------------------------------||
----------------------------------|----------------------------------*||
----------------------------------|----------------------------------*||
--0-0-0-0-0-0-0-0-0-0-0-0-0-0-0-0-|--0-0-0-0-0-0-0-0-0-0-0-0-0-0-0-0--||


                                                                       3x
-----------------------------------|-----------------------------------||
*----------------------------------|----------------------------------*||
*------------------6-6-6-6-6-6-6-6-|----------------------------------*||
---5-5-5-5-5-5-5-5-----------------|--5-5-5-5-5-5-5-5-7-7-7-7-8-8-8-8--||


                                                                       
-----------------------------------|----------------------------------|
*----------------------------------|----------------------------------|
*--0-0-0-0-0-0-0-0-0-0-0-0-0-0-0-0-|--0-0-0-0-0-0-0-0-0-0-0-0-0-0-0-0-|
-----------------------------------|----------------------------------|


                                                                      3x
----------------------------------|-----------------------------------||
----------------------------------|----------------------------------*||
----------------------------------|----------------------------------*||
--0-0-0-0-0-0-0-0-0-0-0-0-0-0-0-0-|--0-0-0-0-0-0-0-0-0-0-0-0-0-0-0-0--||


                                                                       3x
-----------------------------------|-----------------------------------||
*----------------------------------|----------------------------------*||
*------------------6-6-6-6-6-6-6-6-|----------------------------------*||
---5-5-5-5-5-5-5-5-----------------|--5-5-5-5-5-5-5-5-7-7-7-7-8-8-8-8--||


                                                                       3x
-----------------------------------|-----------------------------------||
*----------------------------------|----------------------------------*||
*----------------------------------|----------------------------------*||
---0-0-0-0-0-0-0-0-0-0-0-0-0-0-0-0-|--1-1-1-1-1-1-1-1-1-1-1-1-1-1-1-1--||


                                                                       
-----------------------------------|----------------------------------|
*----------------------------------|----------------------------------|
*--0-0-0-0-0-0-0-0-0-0-0-0-0-0-0-0-|--0-0-0-0-0-0-0-0-0-0-0-0-0-0-0-0-|
-----------------------------------|----------------------------------|


                                                                      3x
----------------------------------|-----------------------------------||
----------------------------------|----------------------------------*||
----------------------------------|----------------------------------*||
--0-0-0-0-0-0-0-0-0-0-0-0-0-0-0-0-|--0-0-0-0-0-0-0-0-0-0-0-0-0-0-0-0--||
            
Submit corrections

comments powered by Disqus
↑ Back to top | Dark Throne Bass for Transilvanian Hunger. Lyrics for acoustic guitar and electric guitar. Tablatures and chords are parodies/interpretations of the original songs. You may use it for private study, scholarship, research or language learning purposes only