» » »

Transilvanian Hunger Tabs (ver.1)

Artists:  A B C D E F G H I J K L M N O P Q R S T U V W X Y Z # 

Transilvanian Hunger Tabs (ver.1)

Dark Throne
Rating:
0/5 (0 votes)

Hard to play? Try these video lessons and learn fast.
                TRACK:     Transilvanian Hunger

RIFF1:
E-||-----------------------------------------------||-----------
B-||-----------------------------------------------||-----------
G-||-----------------------------------------------||-Repeat----
D-||-12----10-----9----10----10-----9----10-----9--||--As-------
A-||--0-----0-----0-----0-----8-----7-----8-----7--||-Nessecary-
E-||-----------------------------------------------||-----------

they are the chords in the main riff, listen to the song and play
each with a fast up and down strumming technique.


RIFF2:
E-||-----------------------------------------------||-----------
B-||-----------------------------------------------||-----------
G-||-----------------------------------------------||-Repeat----
D-||-7-----------8-----------7-----------9-----10--||--As-------
A-||-0-----------6-----------0-----------7------8--||-Nessecary-
E-||-----------------------------------------------||-----------

same fast strumming as previous riff...


RIFF3:
E-||---------------------------||-----------
B-||---------------------------||-----------
G-||---------------------------||-Repeat----
D-||-9---------------------10--||--As-------
A-||-7----------------------8--||-Nessecary-
E-||---------------------------||-----------

same strumming...

well thats it! just those 3 riffs rpeated throughout all 6 mins and
9 seconds of the song! its probably wrong but anyway it'll do for me.
            
Hard to play? Try these video lessons and learn fast. | Correct




comments powered by Disqus
↑ Back to top | Tablatures and chords are parodies/interpretations of the original songs. You may use it for private study, scholarship, research or language learning purposes only