>
 >
Too Old Too Cold

Too Old Too Cold Guitar Tabs

Dark Throne - Too Old Too Cold chords, tabs, tablatures, lyrics

Guitar lessons | Add/correct | Request | Top 50 tabs Artists:  A B C D E F G H I J K L M N O P Q R S T U V W X Y Z 0-9

Too Old Too Cold Guitar Tabs – Dark Throne

CD, Sheet music, Poster

Do you like Too Old Too Cold? Share with your friends now
Bass TabsTabs
	            TOO OLD TOO COLD - Darkthrone

Tuning: Standard

Verse

e|---------------------------------------------------------------------------|
B|---------------------------------------------------------------------------|
G|---------------------------------------------------------------------------|
D|-------------------------------------------------------8--8-8-8-8-/-7--7-7-|
A|-3-/-5--5-5-5-5-5-5-5-5-5-5-5-5-5-5--3-/-5--5-5-5-5-5--6--6-6-6-6-/-5--5-5-|
E|-1-/-3--3-3-3-3-3-3-3-3-3-3-3-3-3-3--1-/-3--3-3-3-3-3----------------------|

e|---------------------------------------------------------------------------|
B|---------------------------------------------------------------------------|
G|---------------------------------------------------------------------------|
D|-------------------------------------------------------7--7-7-7-7-/-5--5-5-|
A|-3-/-5--5-5-5-5-5-5-5-5-5-5-5-5-5-5--3-/-5--5-5-5-5-5--5--5-5-5-5-/-3--3-3-|
E|-1-/-3--3-3-3-3-3-3-3-3-3-3-3-3-3-3--1-/-3--3-3-3-3-3--5--5-5-5-5-/-3--3-3-|

e|---------------------------------------------------------------------------|
B|---------------------------------------------------------------------------|
G|---------------------------------------------------------------------------|
D|-------------------------------------------------------8--8-8-8-8-/-7--7-7-|
A|-3-/-5--5-5-5-5-5-5-5-5-5-5-5-5-5-5--3-/-5--5-5-5-5-5--6--6-6-6-6-/-5--5-5-|
E|-1-/-3--3-3-3-3-3-3-3-3-3-3-3-3-3-3--1-/-3--3-3-3-3-3----------------------|

e|---------------------------------------------------------------------------|
B|---------------------------------------------------------------------------|
G|---------------------------------------------------------------------------|
D|-------------------------------------------------------7--7-7-7-7-/-5--5-5-|
A|-3-/-5--5-5-5-5-5-5-5-5-5-5-5-5-5-5--3-/-5--5-5-5-5-5--5--5-5-5-5-/-3--3-3-|
E|-1-/-3--3-3-3-3-3-3-3-3-3-3-3-3-3-3--1-/-3--3-3-3-3-3--5--5-5-5-5-/-3--3-3-|



Prechorus


e|---------------------------------------------------------------------------|
B|---------------------------------------------------------------------------|
G|---------------------------------------------------------------------------|
D|---------------------------------------------------------------------------|
A|-7-7-7-7-7-7-7-------------5-5--/-4----------------------------------------|
E|-5-5-5-5-5-5-5--6----------3-3--/-6----------------------------------------|

e|---------------------------------------------------------------------------|
B|---------------------------------------------------------------------------|
G|---------------------------------------------------------------------------|
D|---------------------------------------------------------------------------|
A|-7-7-7-7-7-7-7-------------5-5----4----------------------------------------|
E|-5-5-5-5-5-5-5--6-6-6-6-6--3-3--/-6----------------------------------------|

e|---------------------------------------------------------------------------|
B|---------------------------------------------------------------------------|
G|---------------------------------------------------------------------------|
D|---------------------------------------------------------------------------|
A|-7-7-7-7-7-7-7-------------5-5----4----------------------------------------|
E|-5-5-5-5-5-5-5--6-6-6-6-6--3-3--/-6----------------------------------------|

e|---------------------------------------------------------------------------|
B|---------------------------------------------------------------------------|
G|---------------------------------------------------------------------------|
D|---------------------------------------------------------------------------|
A|-7-7-7-7-7-7-7-------------5-5----4----------------------------------------|
E|-5-5-5-5-5-5-5--6-6-6-6-6--3-3--/-6----------------------------------------|



Verse

e|---------------------------------------------------------------------------|
B|---------------------------------------------------------------------------|
G|---------------------------------------------------------------------------|
D|-------------------------------------------------------8--8-8-8-8-/-7--7-7-|
A|-3-/-5--5-5-5-5-5-5-5-5-5-5-5-5-5-5--3-/-5--5-5-5-5-5--6--6-6-6-6-/-5--5-5-|
E|-1-/-3--3-3-3-3-3-3-3-3-3-3-3-3-3-3--1-/-3--3-3-3-3-3----------------------|

e|---------------------------------------------------------------------------|
B|---------------------------------------------------------------------------|
G|---------------------------------------------------------------------------|
D|-------------------------------------------------------7--7-7-7-7-/-5--5-5-|
A|-3-/-5--5-5-5-5-5-5-5-5-5-5-5-5-5-5--3-/-5--5-5-5-5-5--5--5-5-5-5-/-3--3-3-|
E|-1-/-3--3-3-3-3-3-3-3-3-3-3-3-3-3-3--1-/-3--3-3-3-3-3--5--5-5-5-5-/-3--3-3-|

e|---------------------------------------------------------------------------|
B|---------------------------------------------------------------------------|
G|---------------------------------------------------------------------------|
D|-------------------------------------------------------8--8-8-8-8-/-7--7-7-|
A|-3-/-5--5-5-5-5-5-5-5-5-5-5-5-5-5-5--3-/-5--5-5-5-5-5--6--6-6-6-6-/-5--5-5-|
E|-1-/-3--3-3-3-3-3-3-3-3-3-3-3-3-3-3--1-/-3--3-3-3-3-3----------------------|

e|---------------------------------------------------------------------------|
B|---------------------------------------------------------------------------|
G|---------------------------------------------------------------------------|
D|-------------------------------------------------------7--7-7-7-7-/-5--5-5-|
A|-3-/-5--5-5-5-5-5-5-5-5-5-5-5-5-5-5--3-/-5--5-5-5-5-5--5--5-5-5-5-/-3--3-3-|
E|-1-/-3--3-3-3-3-3-3-3-3-3-3-3-3-3-3--1-/-3--3-3-3-3-3--5--5-5-5-5-/-3--3-3-|



Prechorus

e|---------------------------------------------------------------------------|
B|---------------------------------------------------------------------------|
G|---------------------------------------------------------------------------|
D|---------------------------------------------------------------------------|
A|-7-7-7-7-7-7-7-------------5-5--/-4----------------------------------------|
E|-5-5-5-5-5-5-5--6-6-6-6-6--3-3--/-6----------------------------------------|

e|---------------------------------------------------------------------------|
B|---------------------------------------------------------------------------|
G|---------------------------------------------------------------------------|
D|---------------------------------------------------------------------------|
A|-7-7-7-7-7-7-7-------------5-5----4----------------------------------------|
E|-5-5-5-5-5-5-5--6-6-6-6-6--3-3--/-6----------------------------------------|

e|---------------------------------------------------------------------------|
B|---------------------------------------------------------------------------|
G|---------------------------------------------------------------------------|
D|---------------------------------------------------------------------------|
A|-7-7-7-7-7-7-7-------------5-5----4----------------------------------------|
E|-5-5-5-5-5-5-5--6-6-6-6-6--3-3--/-6----------------------------------------|

e|---------------------------------------------------------------------------|
B|---------------------------------------------------------------------------|
G|---------------------------------------------------------------------------|
D|---------------------------------------------------------------------------|
A|-7-7-7-7-7-7-7-------------5-5----4---7------------------------------------|
E|-5-5-5-5-5-5-5--6-6-6-6-6--3-3--/-6---5------------------------------------|



Chorus


e|---------------------------------------------------------------------------|
B|---------------------------------------------------------------------------|
G|---------------------------------------------------------------------------|
D|---------------------------------------------------------------------------|
A|-8---10-9-9---9-9--------------8---10-9-9--9-9--3----10--------------------|
E|-6-/-8--7-7---7-7-7b-7~--------6-/-8--7-7--7-7--1----8---------------------|

Trem pick the bend this time
e|---------------------------------------------------------------------------|
B|---------------------------------------------------------------------------|
G|---------------------------------------------------------------------------|
D|---------------------------------------------------------------------------|
A|-8---10-9-9---9-9--------------8---10-9-9--9-9--3----10--------------------|
E|-6-/-8--7-7---7-7-7b-7~--------6-/-8--7-7--7-7--1----8---------------------|

e|---------------------------------------------------------------------------|
B|---------------------------------------------------------------------------|
G|---------------------------------------------------------------------------|
D|---------------------------------------------------------------------------|
A|-8---10-9-9---9-9--------------8---10-9-9--9-9--3----10--------------------|
E|-6-/-8--7-7---7-7-7b-7~--------6-/-8--7-7--7-7--1----8---------------------|

and again this time
e|---------------------------------------------------------------------------|
B|---------------------------------------------------------------------------|
G|---------------------------------------------------------------------------|
D|---------------------------------------------------------------------------|
A|-8---10-9-9---9-9--------------8---10-9-9--9-9--3----10--------------------|
E|-6-/-8--7-7---7-7-7b-7~--------6-/-8--7-7--7-7--1----8---------------------|



Verse Variant

e|---------------------------------------------------------------------------|
B|---------------------------------------------------------------------------|
G|---------------------------------------------------------------------------|
D|------------10----------------10---------------10--------------------------|
A|--7---7-7---8--7--7--7---7-7--8---7-7-7---7-7--8---7-7---------------------|
E|--5---5-5------5--5--5---5-5------5-5-5---5-5------5-5---------------------|

e|---------------------------------------------------------------------------|
B|---------------------------------------------------------------------------|
G|---------------------------------------------------------------------------|
D|---------------------------------------------------------------------------|
A|--10--9--9---9---10--9---8-------------------------------------------------|
E|--8-/-7--7---7-/-8---7-/-6-------------------------------------------------|

e|---------------------------------------------------------------------------|
B|---------------------------------------------------------------------------|
G|---------------------------------------------------------------------------|
D|------------10----------------10---------------10--------------------------|
A|--7---7-7---8--7--7--7---7-7--8---7-7-7---7-7--8---7-7---------------------|
E|--5---5-5------5--5--5---5-5------5-5-5---5-5------5-5---------------------|

e|---------------------------------------------------------------------------|
B|---------------------------------------------------------------------------|
G|---------------------------------------------------------------------------|
D|---------------------------------------------------------------------------|
A|--10--9--9---9---10--9---8-------------------------------------------------|
E|--8-/-7--7---7-/-8---7-/-6-------------------------------------------------|

e|---------------------------------------------------------------------------|
B|---------------------------------------------------------------------------|
G|---------------------------------------------------------------------------|
D|------------10----------------10---------------10--------------------------|
A|--7---7-7---8--7--7--7---7-7--8---7-7-7---7-7--8---7-7---------------------|
E|--5---5-5------5--5--5---5-5------5-5-5---5-5------5-5---------------------|

e|---------------------------------------------------------------------------|
B|---------------------------------------------------------------------------|
G|---------------------------------------------------------------------------|
D|---------------------------------------------------------------------------|
A|--10--9--9---9---10--9---8-------------------------------------------------|
E|--8-/-7--7---7-/-8---7-/-6-------------------------------------------------|

e|---------------------------------------------------------------------------|
B|---------------------------------------------------------------------------|
G|---------------------------------------------------------------------------|
D|------------10----------------10---------------10--------------------------|
A|--7---7-7---8--7--7--7---7-7--8---7-7-7---7-7--8---7-7---------------------|
E|--5---5-5------5--5--5---5-5------5-5-5---5-5------5-5---------------------|

e|---------------------------------------------------------------------------|
B|---------------------------------------------------------------------------|
G|---------------------------------------------------------------------------|
D|---------------------------------------------------------------------------|
A|--10--9--9---9---10--9---8-------------------------------------------------|
E|--8-/-7--7---7-/-8---7-/-6-------------------------------------------------|



Chorus


e|---------------------------------------------------------------------------|
B|---------------------------------------------------------------------------|
G|---------------------------------------------------------------------------|
D|---------------------------------------------------------------------------|
A|-8---10-9-9---9-9--------------8---10-9-9--9-9--3----10--------------------|
E|-6-/-8--7-7---7-7-7b-7~--------6-/-8--7-7--7-7--1----8---------------------|

Trem pick the bend this time
e|---------------------------------------------------------------------------|
B|---------------------------------------------------------------------------|
G|---------------------------------------------------------------------------|
D|---------------------------------------------------------------------------|
A|-8---10-9-9---9-9--------------8---10-9-9--9-9--3----10--------------------|
E|-6-/-8--7-7---7-7-7b-7~--------6-/-8--7-7--7-7--1----8---------------------|

e|---------------------------------------------------------------------------|
B|---------------------------------------------------------------------------|
G|---------------------------------------------------------------------------|
D|---------------------------------------------------------------------------|
A|-8---10-9-9---9-9--------------8---10-9-9--9-9--3----10--------------------|
E|-6-/-8--7-7---7-7-7b-7~--------6-/-8--7-7--7-7--1----8---------------------|

and again this time
e|---------------------------------------------------------------------------|
B|---------------------------------------------------------------------------|
G|---------------------------------------------------------------------------|
D|---------------------------------------------------------------------------|
A|-8---10-9-9---9-9--------------8---10-9-9--9-9--3----10--------------------|
E|-6-/-8--7-7---7-7-7b-7~--------6-/-8--7-7--7-7--1----8---------------------|


Verse Variant

e|---------------------------------------------------------------------------|
B|---------------------------------------------------------------------------|
G|---------------------------------------------------------------------------|
D|------------10----------------10---------------10--------------------------|
A|--7---7-7---8--7--7--7---7-7--8---7-7-7---7-7--8---7-7---------------------|
E|--5---5-5------5--5--5---5-5------5-5-5---5-5------5-5---------------------|

e|---------------------------------------------------------------------------|
B|---------------------------------------------------------------------------|
G|---------------------------------------------------------------------------|
D|---------------------------------------------------------------------------|
A|--10--9--9---9---10--9---8-------------------------------------------------|
E|--8-/-7--7---7-/-8---7-/-6-------------------------------------------------|

e|---------------------------------------------------------------------------|
B|---------------------------------------------------------------------------|
G|---------------------------------------------------------------------------|
D|------------10----------------10---------------10--------------------------|
A|--7---7-7---8--7--7--7---7-7--8---7-7-7---7-7--8---7-7---------------------|
E|--5---5-5------5--5--5---5-5------5-5-5---5-5------5-5---------------------|

e|---------------------------------------------------------------------------|
B|---------------------------------------------------------------------------|
G|---------------------------------------------------------------------------|
D|---------------------------------------------------------------------------|
A|--10--9--9---9---10--9---8-------------------------------------------------|
E|--8-/-7--7---7-/-8---7-/-6-------------------------------------------------|

e|---------------------------------------------------------------------------|
B|---------------------------------------------------------------------------|
G|---------------------------------------------------------------------------|
D|------------10----------------10---------------10--------------------------|
A|--7---7-7---8--7--7--7---7-7--8---7-7-7---7-7--8---7-7---------------------|
E|--5---5-5------5--5--5---5-5------5-5-5---5-5------5-5---------------------|

e|---------------------------------------------------------------------------|
B|---------------------------------------------------------------------------|
G|---------------------------------------------------------------------------|
D|---------------------------------------------------------------------------|
A|--10--9--9---9---10--9---8-------------------------------------------------|
E|--8-/-7--7---7-/-8---7-/-6-------------------------------------------------|

e|---------------------------------------------------------------------------|
B|---------------------------------------------------------------------------|
G|---------------------------------------------------------------------------|
D|------------10----------------10---------------10--------------------------|
A|--7---7-7---8--7--7--7---7-7--8---7-7-7---7-7--8---7-7---------------------|
E|--5---5-5------5--5--5---5-5------5-5-5---5-5------5-5---------------------|

e|---------------------------------------------------------------------------|
B|---------------------------------------------------------------------------|
G|---------------------------------------------------------------------------|
D|---------------------------------------------------------------------------|
A|--10--9--9---9---10--9---8----7--------------------------------------------|
E|--8-/-7--7---7-/-8---7-/-6----5--------------------------------------------|




************************************

| /   slide up
| \   slide down
| h   hammer-on
| p   pull-off
| ~   vibrato
| +   harmonic
| x   Mute note
| b   Bend
| pb  Pre-bend
| br  Bend release
| pbr Pre-bend release
| brb Bend release bend

************************************





Comments


Popular Dark Throne tabs & chords
Cromlech Bass Tabs
Too Old Too Cold Bass Tabs
A Blaze In The Northern Sky Tabs
Beholding The Throne Of Might Intro Tabs
Sacrificing To The God Of Doub Tabs
Skald Av Satans Sol Tabs
The Claws Of Time Tabs
The Hordes Of Nebulah Tabs
To The Death Tabs
To The Death Under The King Tabs


Song lyrics



↑ Back to top | Tablatures and chords are parodies/interpretations of the original songs. You may use it for private study, scholarship, research or language learning purposes only
© 2014 AZChords.com Contact us | Privacy policy | DMCA | Add/correct tabs | Request tabs | Top 50 tabs