» » »

Too Old Too Cold Bass tabs (ver.1)

Artists:  A B C D E F G H I J K L M N O P Q R S T U V W X Y Z # 

Too Old Too Cold Bass tabs (ver.1)

Dark Throne
Rating:
0/5 (0 votes)

Hard to play? Try these video lessons and learn fast.
                                               Too Old Too Cold                                 


                                                                      Darkthrone
Bass



      S S S S S S S S S S S S S S S S    S S S S S S S E  S S S S S S S  
G||-----------------------------------|----------------8--8-8-8-8-7-7-7-|
D||*--3-5-5-5-5-5-5-5-5-5-5-5-5-5-5-5-|--3-5-5-5-5-5-5------------------|
A||*----------------------------------|---------------------------------|
E||-----------------------------------|---------------------------------|


  S S S S S S S S S S S S S S S S    S S S S S S S E  S S S S S S S    
----------------------------------|----------------3--3-3-3-3-2-2-2--||
--3-5-5-5-5-5-5-5-5-5-5-5-5-5-5-5-|--3-5-5-5-5-5-5------------------*||
----------------------------------|---------------------------------*||
----------------------------------|----------------------------------||


  S S S S S S S E  S S S S S S S    E  E  E  E  S S S S S S S S  
----------------3--3-3-3-3-2-2-2-|--------------8-8-8-8-8-7-7-7-|
--3-5-5-5-5-5-5------------------|--3--5--5--3------------------|
---------------------------------|------------------------------|
---------------------------------|------------------------------|


  E  E  E  E  S S S S S S S S    E  E  E  E  S S S S S S S S  
--------------8-8-8-8-8-7-7-7-|--------------8-8-8-8-8-7-7-7-|
--3--5--5--3------------------|--3--5--5--3------------------|
------------------------------|------------------------------|
------------------------------|------------------------------|


  E  E  E  E  S S S S S S S S      S S S S S S S S S S S S S S S S  
--------------8-8-8-8-8-7-7-7-||-----------------------------------|
--3--5--5--3------------------||*--3-5-5-5-5-5-5-5-5-5-5-5-5-5-5-5-|
------------------------------||*----------------------------------|
------------------------------||-----------------------------------|


  S S S S S S S E  S S S S S S S    S S S S S S S S S S S S S S S S  
----------------8--8-8-8-8-7-7-7-|----------------------------------|
--3-5-5-5-5-5-5------------------|--3-5-5-5-5-5-5-5-5-5-5-5-5-5-5-5-|
---------------------------------|----------------------------------|
---------------------------------|----------------------------------|


  S S S S S S S E  S S S S S S S      S S S S S S S E  S S S S S S S  
----------------3--3-3-3-3-2-2-2--||----------------3--3-3-3-3-2-2-2-|
--3-5-5-5-5-5-5------------------*||--3-5-5-5-5-5-5------------------|
---------------------------------*||---------------------------------|
----------------------------------||---------------------------------|


  E  E  E  E  S S S S S S S S    E  E  E  E  S S S S S S S S  
--------------8-8-8-8-8-7-7-7-|--------------8-8-8-8-8-7-7-7-|
--3--5--5--3------------------|--3--5--5--3------------------|
------------------------------|------------------------------|
------------------------------|------------------------------|


  E  E  E  E  S S S S S S S S    E  E  E  E  S S S S S S S S  
--------------8-8-8-8-8-7-7-7-|--------------8-8-8-8-8-7-7-7-|
--3--5--5--3------------------|--3--5--5--3------------------|
------------------------------|------------------------------|
------------------------------|------------------------------|


  W                   W                   W                 
-------------------|-------------------|-------------------|
-------------------|-------------------|-------------------|
--7----------------|--L----------------|--L----------------|
-------------------|-------------------|-------------------|


  S S Q    S S Q     Q       S S Q    S S E  S S  Q     
--------------------------|----------------------------|
--7-8-7----7-7-8~----7----|--7-8-7----7-7-3--3-3-10----|
--------------------------|----------------------------|
--------------------------|----------------------------|


  S S Q    S S Q     Q       S S Q    S S E  S S  Q     
--------------------------|----------------------------|
--7-8-7----7-7-8~----7----|--7-8-7----7-7-3--3-3-10----|
--------------------------|----------------------------|
--------------------------|----------------------------|


  S S Q    S S Q     Q       S S Q    S S E  S S  Q     
--------------------------|----------------------------|
--7-8-7----7-7-8~----7----|--7-8-7----7-7-3--3-3-10----|
--------------------------|----------------------------|
--------------------------|----------------------------|


  S S Q    S S Q     Q       S S Q    S S E  S S  Q     
--------------------------|----------------------------|
--7-8-7----7-7-8~----7----|--7-8-7----7-7-3--3-3-10----|
--------------------------|----------------------------|
--------------------------|----------------------------|


  E  E   Q    E  E   Q       E  E   Q    S S E  S S S S  
--------10----------10----|--------10-------------------|
--7--7--------7--7--------|--7--7-----------------------|
--------------------------|--------------7-8-8--8-7-5-3-|
--------------------------|-----------------------------|


  E  E   Q    E  E   Q       E  E   Q    S S E  S S S S  
--------10----------10----|--------10-------------------|
--7--7--------7--7--------|--7--7-----------------------|
--------------------------|--------------7-8-8--8-7-5-3-|
--------------------------|-----------------------------|


  E  E   Q    E  E   Q       E  E   Q    S S E  S S S S  
--------10----------10----|--------10-------------------|
--7--7--------7--7--------|--7--7-----------------------|
--------------------------|--------------7-8-8--8-7-5-3-|
--------------------------|-----------------------------|


  E  E   Q    E  E   Q       E  E   Q    S S E  S S S S  
--------10----------10----|--------10-------------------|
--7--7--------7--7--------|--7--7-----------------------|
--------------------------|--------------7-8-8--8-7-5-3-|
--------------------------|-----------------------------|


  S S Q    S S Q     Q       S S Q    S S E  S S  Q     
--------------------------|----------------------------|
--7-8-7----7-7-8~----7----|--7-8-7----7-7-3--3-3-10----|
--------------------------|----------------------------|
--------------------------|----------------------------|


  S S Q    S S Q     Q       S S Q    S S E  S S  Q     
--------------------------|----------------------------|
--7-8-7----7-7-8~----7----|--7-8-7----7-7-3--3-3-10----|
--------------------------|----------------------------|
--------------------------|----------------------------|


  S S Q    S S Q     Q       S S Q    S S E  S S  Q     
--------------------------|----------------------------|
--7-8-7----7-7-8~----7----|--7-8-7----7-7-3--3-3-10----|
--------------------------|----------------------------|
--------------------------|----------------------------|


  S S Q    S S Q     Q       S S Q    S S E  S S  Q     
--------------------------|----------------------------|
--7-8-7----7-7-8~----7----|--7-8-7----7-7-3--3-3-10----|
--------------------------|----------------------------|
--------------------------|----------------------------|


  E  E   Q    E  E   Q       E  E   Q    S S E  S S S S  
--------10----------10----|--------10-------------------|
--7--7--------7--7--------|--7--7-----------------------|
--------------------------|--------------7-8-8--8-7-5-3-|
--------------------------|-----------------------------|


  E  E   Q    E  E   Q       E  E   Q    S S E  S S S S  
--------10----------10----|--------10-------------------|
--7--7--------7--7--------|--7--7-----------------------|
--------------------------|--------------7-8-8--8-7-5-3-|
--------------------------|-----------------------------|


  E  E   Q    E  E   Q       E  E   Q    S S E  S S S S  
--------10----------10----|--------10-------------------|
--7--7--------7--7--------|--7--7-----------------------|
--------------------------|--------------7-8-8--8-7-5-3-|
--------------------------|-----------------------------|


  E  E   Q    E  E   Q       E  E   Q    S S E  S S S S    W                 
--------10----------10----|--------10-------------------|-------------------|
--7--7--------7--7--------|--7--7-----------------------|-------------------|
--------------------------|--------------7-8-8--8-7-5-3-|--7----------------|
--------------------------|-----------------------------|-------------------|


  W                   W                   W                  
-------------------|-------------------|-------------------||
-------------------|-------------------|-------------------||
--L----------------|--L----------------|--L----------------||
-------------------|-------------------|-------------------||




Duration Legend
---------------
W - whole
H - half
Q - quarter
E - 8th
S - 16th
T - 32nd
X - 64th
. - note dotted
|-n-|  - n-tuplets


Tablature Legend
----------------
L - tied note
x - dead note
g - grace note
(n) - ghost note
> - accentuded note
NH - natural harmonic
AH - artificial harmonic
TH - tapped harmonic
SH - semi harmonic
PH - pitch harmonic
h - hammer on
p - pull off
b - bend
br - bendRelease
pb - preBend
pbr - preBendRelease
brb - bendReleaseBend
\n/ - tremolo bar dip
\n - tremolo bar dive
-/n - tremolo bar Release up
/n\ - tremolo bar inverted dip
/n - tremolo bar return
-\n - tremolo bar Release down
S - shift slide
s - legato slide
/ -  slide into from below or out of upwards
\ -  slide into from above or out of downwards
~ - vibrato
W - wide vibrato
tr - trill
TP - tremolo picking
T - tapping
S - slap
P - pop
< - fade in
^ - brush up
v - brush down
            
Hard to play? Try these video lessons and learn fast. | Correct




comments powered by Disqus
↑ Back to top | Tablatures and chords are parodies/interpretations of the original songs. You may use it for private study, scholarship, research or language learning purposes only