» » »

Darkness, Friday Night Bass tabs (ver.1)

Artists:  A B C D E F G H I J K L M N O P Q R S T U V W X Y Z # 

Friday Night Bass tabs (ver.1)

Darkness Tabs
Rating:
0/5 (0 votes)
Friday Night lessons Tabs too difficult? Try these video lessons and learn fast
                Band - The Darkness
Album - Permission to Land (2003)

Like All Darkness Songs, Just Follow The
Rythem Of The Guitar Strokes...


Intro
G--------------|
D--------------|
A--0*------0*--|
E------3*------|

Verse
G-------------------------------------------|
D-------------------------------------------|
A-0p2-22-2-22-22-2-6-66-6h7-77-77-4-44-44---|
E-------------------------------------------| Repeat throughout

Chorus
G-------------------------------------------|
D---------------------------9-99-99---------|
A--7-77-77-4-444-44-0-00-00-----------------|
E-------------------------------------------| Repeat throughout

Solo 1 (starting from "With youuu-ho-hoo-ho-ho-ho--|
G--------------------------------------------------|
D--0*-------------0*--3-------------3*-------------|
A----------0*-------------0*---3*------------------|
E--------------------------------------------------|

Outro (Solo 2)
G-------------------------------------------|
D---------------------------9-99-99---------|
A--7-77-77-4-444-44-0-00-00-----------------|
E-------------------------------------------| x 8

Enjoy!
            

comments powered by Disqus
↑ Back to top | Darkness Bass for Friday Night. Lyrics for acoustic guitar and electric guitar. Tablatures and chords are parodies/interpretations of the original songs. You may use it for private study, scholarship, research or language learning purposes only