» » »

Darkness, Friday Night Tabs (ver.2)

Artists:  A B C D E F G H I J K L M N O P Q R S T U V W X Y Z # 

Friday Night Tabs (ver.2)

Darkness Tabs
 Rating:
4/5 (4 votes)
Friday Night lessons Tabs too difficult? Try these video lessons and learn fast
1
                This is one of my favourite songs so i hope its good!

standard tuning  EADGBE
/ = slide
b = bend
br = bend and release
v = vibrato
x = palm mute
( ) = Ghost notes


--9/12--12p9--12p9------------------------------------------------------
----------------------------11p9--11p9-------11br--9--11--11br--11v-----
-----------------------------------------11-----------------------------

                 /----(fast pickling)------/
------------------7-7-9-7-7/9-9-9-11-9/12-----16b-x-16b-x-16b--16v--
------9--11---------------------------------------------------------
-11-----------------------------------------------------------------

/----(fast pickling)----------------/
--14-14-17-14-----------------------------------------------------------
------------------14-14-16-14------------------------11-----------------
-----------------------------------14/9/11--11br-9------11b-11br-11v----

-11br-11br-11b-11b-11v----------------------11br 11br--11vv------------
----------------------------11--9--11--9------------------------------

-------9--11--9-9-11----------------------------11--11-9-11------9vvvv-------
--11---------------------11v----11--9--11--9-------------------11------------
            
Submit corrections

comments powered by Disqus
↑ Back to top | Darkness Tabs for Friday Night. Lyrics for acoustic guitar and electric guitar. 1 Tablatures and chords are parodies/interpretations of the original songs. You may use it for private study, scholarship, research or language learning purposes only