» » »

Darkness, Friday Night Tabs (ver.1)

Artists:  A B C D E F G H I J K L M N O P Q R S T U V W X Y Z # 

Friday Night Tabs (ver.1)

Darkness Tabs
 Rating:
4.8/5 (17 votes)
Friday Night lessons Tabs too difficult? Try these video lessons and learn fast
1
                The Darkness - Friday Night (Full tabs minus end solo)

Key:

\    slide down
/    slide up
~~   vibrato
h    hammer on
p    pull off
b    bend
p/m  palm muted


Intro

                                        |-p/m--(slowly releasing)-| 
E--0----0-----------------------0-0--------------------------------------
B--0-------4p2p0-2------0-------------4--4---4-4-4-4-4-4-4-4-4-4-4-------
G--1---------------2----2p1-2p1----------4---4-4-4-4-4-4-4-4-4-4-4-------
D--2--------------------2-----------2----4---4-4-4-4-4-4-4-4-4-4-4-------
A--2--------------------0----------------2---2-2-2-2-2-2-2-2-2-2-2-------
E--0---------------------------------------------------------------------


Verse 1

E---------------------------------------5-0----------2---------------------
B------4----4--4--------------------0-------0---0----2---------------------
G------4----4--4-------4------4--4--6---------6------2------------4-----4--
D------4----4--4----6--6---6--6--6--7-------------6--4---4-2--4h6---4h6-4--
A---0--2----2--2----6------6--------7--------------------------------------
E--------------------------------------------------------------------------


E-------------------------------5-0----------2------------2----
B---4--4--------------------0-------0---0----2--2-4---5--------
G---4--4-------4------4--4--6---------6------2------2---2---2--
D---4--4----6--6---6--6--6--7-------------6--4-----------------
A---2--2----6------6--------7----------------------------------
E--------------------------------------------------------------


Chorus
           
E----------------------4---4--5---4-5-----4---4--5---4-5-----0---0--0---0-0--|
B---9----10---9-10-----5---5--5---5-5-----5---5--5---5-5-----7---7--7---7-7--| repeat
G---9----9----9-9------4---4--4---4-4-----4---4--4---4-4-----8---8--8---8-8--| once
D---9----9----9-9------6---6--6---6-6-----x---x--x---x-x-----9---9--9---9-9--|
A---7----7----7-7------4---4--4---4-4-----0---0--0---0-0---------------------|
E----------------------------------------------------------------------------|

(Flatten your middle finger for the 5 on the high-e of the C#min7 chord)


Verse 2

E-----------------------------------5-0----------2---------------------
B---4----4--4----5---5-4--4-5---0-------0---0----2---------------------
G---4----4--4----4---4-4--4-4---6---------6------2------------4-----4--
D---4----4--4----6---6-6--6-6---7-------------6--4---4-2--4h6---4h6-4--
A---2----2--2----6---6-6--6-6---7--------------------------------------
E----------------------------------------------------------------------


E------------------------------5-0----------2------------2--------
B---4--4----5---5-4--4-5---0-------0---0----2--2-4---5------------
G---4--4----4---4-4--4-4---6---------6------2------2---2---2------
D---4--4----6---6-6--6-6---7-------------6--4---------------------
A---2--2----6---6-6--6-6---7--------------------------------------
E-----------------------------------------------------------------


Play Chorus and slide off from end chord to:


|--MIDDLE SECTION--| (2 guitars)


Guitar 1
                                                      (1)
E-------0----------------------0-0-------------2-------|----0------------
B--0--0----4p2p0-2-------------------4-------4---4-----|--0----4p2p0-2---
G--1---------------2---2/1-2p1-------------2-------2---|---------------2-
D--2-------------------------------2-----4-----------4-|2----------------
A--2-----------------------------------2---------------|-----------------
E--0---------------------------------------------------|-----------------

                                  (2) 
E----------0-0-------------2-------|----0---------------------0-0--------
B----------------4-------4---4-----|--0----4p2p0-2-----------------/7~~--
G--2/1-2p1-------------2-------2---|---------------2--2/1-2p1------------
D--------------2-----4-----------4-|2------------------------------------
A------------------2---------------|-------------------------------------
E----------------------------------|-------------------------------------

Play through once to (2) then repeat the section between (1) and (2), then 
carry on to the end.


Guitar 2 - Starts at the repeat of (1) to (2) on Guitar 1.
                                                   |-p/m-|
E------------------------------------------------------------------------
B-------/9~~-----------------------------9-9------------------------/9---
G-------------11p9\8--9-----------------------11~~-----------------------
D--6~~-------------------11~~--11p9-11p9------------(9)(9)--6b7b6~~------
A------------------------------------------------------------------------
E------------------------------------------------------------------------


E-----------------------------------------
B----------------------------9-9--/12~~---
G--11p9\8--9------------------------------
D------------11~~--11p9-11p9--------------
A-----------------------------------------
E-----------------------------------------

This is followed by the Chorus into the solo.


I haven't tabbed out the solo because I can't get the fast descending bit.
If anyone has tabbed it please let me know so I can add it in. The chords 
behind it are simply the chorus section repeated, ending on an Emaj chord.


Let me know what you think of the tab. All feedback is welcome.
            
Submit corrections

comments powered by Disqus
↑ Back to top | Darkness Tabs for Friday Night. Lyrics for acoustic guitar and electric guitar. 1 Tablatures and chords are parodies/interpretations of the original songs. You may use it for private study, scholarship, research or language learning purposes only