» » »

Darkness, Black Shuck Tabs (ver.2)

Artists:  A B C D E F G H I J K L M N O P Q R S T U V W X Y Z # 

Black Shuck Tabs (ver.2)

Darkness Tabs
 Rating:
4.8/5 (21 vote)
Black Shuck lessons Tabs too difficult? Try these video lessons and learn fast
1
                Standard tuning

ppl i only got the intro so far! still good tho

Do this to start with-

     G     E         A       E            D5                       D5 A
-----------------------------------------------3-----------------------3--------
--------------------------2--------------------2-----------------------2-2---------
-------------2-2-2-2-2----2-----2-2-2-2-2------0----2-2-2-2------------0-2--------
-------------2-2-2-2-2----0-----2-2-2-2-2-----------2-2-2-2----2-0-------0-----
-----3^(4)---0-0-0-0-0----------0-0-0-0-0-----------0-0-0-0--------3p0------------



     G     E         A       E            D5                      D5 A
-------------------------------------------3-----------------------3--------
----------------------2--------------------2-----------------------2-2---------
-----5---2-2-2-2-2----2-----2-2-2-2-2------0----2-2-2-2------------0-2------------
-----5---2-2-2-2-2----0-----2-2-2-2-2-----------2-2-2-2----2-0-------0-----
-----3---0-0-0-0-0----------0-0-0-0-0-----------0-0-0-0--------3p0------------

   G     E         A       E            D5                        D5 A
-----3-----------------------------------------------------------------------
-----3----------------2--------------------3-----------------------3--------
-----0----------------2--------------------2-----------------------2-2---------
-----0---2-2-2-2-2----2-----2-2-2-2-2------0----2-2-2-2------------0-2------------
-----x---2-2-2-2-2----0-----2-2-2-2-2-----------2-2-2-2----2-0-------0-----
-----3---0-0-0-0-0----------0-0-0-0-0-----------0-0-0-0--------3p0------------

there ya go ppl!! have fun
            
Submit corrections

comments powered by Disqus
↑ Back to top | Darkness Tabs for Black Shuck. Lyrics for acoustic guitar and electric guitar. 1 Tablatures and chords are parodies/interpretations of the original songs. You may use it for private study, scholarship, research or language learning purposes only