» » »

Darkness, Black Shuck Tabs (ver.3)

Artists:  A B C D E F G H I J K L M N O P Q R S T U V W X Y Z # 

Black Shuck Tabs (ver.3)

Darkness Tabs
Rating:
5/5 (1 vote)
Black Shuck lessons Tabs too difficult? Try these video lessons and learn fast
                INTRO   PLAYED 6 TIMES                 CHORUS     PLAYED 4 TIMES
---3^--0--0---0--0--5^--0--0---0--0--7^--0--0---0--0--7--5--3--0--7-


---------
---------
---------
---------
---------
5--3--5--



VERSE                      PLAYED 2 TIMES
----------2---2---2-------------------------------------------------
-----2------0---0---5~~--5---5---5----------2--2--2-2-2-2--2--2--2-2
-----------------------3---3-------------0--0--0--0-0-0-0--0--0--0-0
-------------------------------2--3-5-------------------------------



--------------------
--------------------
--------------------
-2-2--2--2----------
-0-0--0--0----------
------------2--3-5--



Play whole thing 6 times, stop on the 4th verse. There is a solo
after you play it the 5th time that you can not hear. If you are
using 2 guitars the second guitar plays the verse at the same time as
the intro. 


The outro is just

------
------
------
-2----
-0----
------
            
Submit corrections

comments powered by Disqus
↑ Back to top | Darkness Tabs for Black Shuck. Lyrics for acoustic guitar and electric guitar. Tablatures and chords are parodies/interpretations of the original songs. You may use it for private study, scholarship, research or language learning purposes only