>
 >
Pathos 1

Pathos 1 Guitar Tabs

Darkest Hour - Pathos 1 chords, tabs, tablatures, lyrics

Guitar lessons | Add/correct | Request | Top 50 tabs Artists:  A B C D E F G H I J K L M N O P Q R S T U V W X Y Z 0-9

Pathos 1 Guitar Tabs – Darkest Hour

CD, Sheet music, Poster

Do you like Pathos 1? Share with your friends now
TabsTabs v2Tabs v3

Gtr I (Eb Ab Db Gb Bb Eb) 
Gtr II (Eb Ab Db Gb Bb Eb) 

Q=120
4/4

  Gtr I
  E  E  E  E  E  E  Q      +Q     Q    Q    Q
|------------------------|-------------0--------|
|-------------5----------|--------4-------------|
|-------6--------6-------|------------------6---|
|----6-----6--------6----|-(6)------------------|
|-4----------------------|----------------------|
|------------------------|----------------------|
| Gtr II
| W                        Q     Q     Q    Q
|------------------------|-------0-----0--------|
|------------------------|----------------------|
|------------------------|------------------6---|
|------------------------|----------------------|
|------------------------|----------------------|
|------------------------|----------------------|

  E  E  E  E  E  E  Q      +Q     Q    Q    Q
|------------------------|-------------0--------|
|-------------5----------|--------4-------------|
|-------6--------6-------|------------------6---|
|----6-----6--------6----|-(6)------------------|
|-4----------------------|----------------------|
|------------------------|----------------------|
|
| W                        Q     Q     Q    Q
|------------------------|-------7-----5--------|
|------------------------|------------------7---|
|------------------------|----------------------|
|------------------------|----------------------|
|------------------------|----------------------|
|------------------------|----------------------|

  E  E  E  E  E  E  Q      +Q     Q    Q    Q
|------------------------|-------------0--------|
|-------------5----------|--------4-------------|
|-------6--------6-------|------------------6---|
|----6-----6--------6----|-(6)------------------|
|-4----------------------|----------------------|
|------------------------|----------------------|
|
| W                        H         H    
|------------------------|-14--------11---------|
|------------------------|----------------------|
|------------------------|----------------------|
|------------------------|----------------------|
|------------------------|----------------------|
|------------------------|----------------------|

  E  E  E  E  E  E  Q      +Q     Q    Q    Q
|------------------------|-------------0--------|
|-------------5----------|--------4-------------|
|-------6--------6-------|------------------6---|
|----6-----6--------6----|-(6)------------------|
|-4----------------------|----------------------|
|------------------------|----------------------|
|
| W                        W
|------------------------|----------------------|
|------------------------|----------------------|
|------------------------|----------------------|
|------------------------|----------------------|
|------------------------|----------------------|
|------------------------|----------------------|

  E  E  E  E  E  E  E  E    E  E  E  E  E  E  E  E
|-------------------------|-------------------------|
|-------------------------|-------------5-----------|
|----------6-----------8--|-------6--------6-----6--|
|-------7-----------9-----|----6-----6--------6-----|
|----7-----------9--------|-4-----------------------|
|-5-----------7-----------|-------------------------|
|
| E  T T S E  E  E  E  E  E    E  T T S E  E  E  E  E  E
|----------------------------|----------------------------|
|-9--7h9p7----------------7--|-9--7h9p7----------------7--|
|----------9--8-----8--9-----|----------9--8--6--8--9-----|
|----------------9-----------|----------------------------|
|----------------------------|----------------------------|
|----------------------------|----------------------------|

  E  E  E  E  E  E  E  E    E  E  E  E  E  E  E  E
|-------------------------|-------------------------|
|-------------------------|-------------5-----------|
|----------6-----------8--|-------6--------6-----6--|
|-------7-----------9-----|----6-----6--------6-----|
|----7-----------9--------|-4-----------------------|
|-5-----------7-----------|-------------------------|
|
| Q    Q    E  T T S E  E    E  T T S E  E  E  E  E  E            
|--------------------------|----------------------------|
|-9----7-------------------|-9--7h9p7----------------7--|
|-----------9--8h9p8----8--|----------9--8--6--8--9-----|
|--------------------9-----|----------------------------|
|--------------------------|----------------------------|
|--------------------------|----------------------------|

  E  E  E  E  E  E  E  E    E  E  E  E  E  E  E  E
|-------------------------|-------------------------|
|-------------------------|-------------5-----------|
|-------9-----------------|-------6--------6-----6--|
|----9--------------9-----|----6-----6--------6-----|
|-7--------7-----9--------|-4-----------------------|
|-------------7--------7--|-------------------------|
|
| Q      Q     Q    Q       E  T T S E  E  E  E  E  E
|-------------------------|----------------------------|
|-12-----10----9----------|-9--7h9p7----------------7--|
|-------------------11----|----------9--8--6--8--9-----|
|-------------------------|----------------------------|
|-------------------------|----------------------------|
|-------------------------|----------------------------|

  E  E  E  E  E  E  E  E    E  E  E  E  E  E  E  E
|-------------------------|-------------------------|
|-------------------------|-------------5-----------|
|-------6-----------8-----|-------6--------6-----6--|
|-------------------------|----6-----6--------6-----|
|----7-----------9--------|-4-----------------------|
|-5--------5--7--------7--|-------------------------|
|
| Q    Q    E  T T S E  E    E  T T S E  E  E  E  E  E            
|--------------------------|----------------------------|
|-9----7-------------------|-9--7h9p7----------------7--|
|-----------9--8h9p8----8--|----------9--8--6--8--9-----|
|--------------------9-----|----------------------------|
|--------------------------|----------------------------|
|--------------------------|----------------------------|

  E  E  E  E  E  E  E  E    E  E  E  E  E  E  E  E
|-------------------------|----------0-----------0--|
|-------------------------|-------------------------|
|-------------------------|-------8-----------8-----|
|-------7-----------9-----|----9-----------9--------|
|----7-----------9--------|-------------------------|
|-5--------5--7--------7--|-0-----------0-----------|
|
| Q     Q     Q     Q       W
|-------------------------|-------------------------|
|-12----10----9-----------|-------------------------|
|-------------------11----|-------------------------|
|-------------------------|-2-----------------------|
|-------------------------|-2-----------------------|
|-------------------------|-0-----------------------|

  E  E  E  E  E  E  E  E    E  E  E  E  E  E  E  E
|----------0-----------0--|----------0-----------0--|
|-------------------------|-------------------------|
|-------8-----------8-----|-------8-----------8-----|
|----9-----------9--------|----9-----------9--------|
|-------------------------|-------------------------|
|-0-----------0-----------|-0-----------0-----------|
|
| +Q     Q     Q     Q       W
|-------------------------|-------------------------|
|-------------------------|-------------------------|
|-------------------------|-------------------------|
|-(2)----------9-----9----|-------------------------|
|-(2)----------7-----6----|-9-----------------------|
|-(0)---------------------|-7-----------------------|

  E  E  E  E  E  E  E  E    E  E  E  E  E  E  E  E
|----------0-----------0--|----------0-----------0--|
|-------------------------|-------------------------|
|-------8-----------8-----|-------8-----------8-----|
|----9-----------9--------|----9-----------9--------|
|-------------------------|-------------------------|
|-0-----------0-----------|-0-----------0-----------|
|
| H            Q.      E    H           H
|-------------------------|-------------------------|
|-------------------------|-------------------------|
|-------------------------|-------------------------|
|-------------------------|-------------------------|
|----------------------6--|-7-----------2-----------|
|-------------------------|-------------0-----------|

  E  E  E  E  E  E  E  E    E  E  E  E  E  E  E  E
|----------0-----------0--|----------0-----------0--|
|-------------------------|-------------------------|
|-------8-----------8-----|-------8-----------8-----|
|----9-----------9--------|----9-----------9--------|
|-------------------------|-------------------------|
|-0-----------0-----------|-0-----------0-----------|
|
|  W                        Q     Q     H        
|-------------------------|-------------------------|
|-------------------------|-------------------------|
|-------------------------|-------------------------|
|-------------------------|-4-----------------------|
|-(2)---------------------|-------6-----------------|
|-(0)---------------------|-------------7-----------|

  E  E  E  E  E  E  E  E    W
|----------0-----------0--|-------------------------|
|-------------------------|-------------------------|
|-------8-----------8-----|-------------------------|
|----9-----------9--------|-------------------------|
|-------------------------|-7-----------------------|
|-0-----------0-----------|-0-----------------------|
|
| +Q.     E  H              E  E  E  E  E  E  E  E
|-------------------------|-------------0-----------|
|-------------------------|-------------------------|
|-------------------------|-------8--------8-----8--|
|-------------------------|----9-----9--------9-----|
|-------------------------|-7-----------------------|
|-(7)-----5--4------------|-------------------------|

  +Q     Q     Q     Q      W
|-------------------------|-------------------------|
|-------------------------|-------------------------|
|-------------------------|-------------------------|
|--------------6-----4----|-------------------------|
|-(7)----------7-----6----|-6-----------------------|
|-(0)---------------------|-7-----------------------|
|
| E  E  E  E  E  E  E  E    E  E  E  E  E  E  E  E
|-------------0-----------|-------------0-----------|
|-------------------------|-------------------------|
|-------8--------8-----8--|-------8--------8-----8--|
|----9-----9--------9-----|----9-----9--------9-----|
|-7-----------------------|-7-----------------------|
|-------------------------|-------------------------|

  Q.      +H           E    W
|-------------------------|-------------------------|
|-------------------------|-------------------------|
|-------------------------|-------------------------|
|---------------------4---|-6-----------------------|
|-4-------(4)---------6---|-7-----------------------|
|-------------------------|-------------------------|
|
| E  E  E  E  E  E  E  E    E  E  E  E  E  E  E  E
|-------------0-----------|-------------0-----------|
|-------------------------|-------------------------|
|-------8--------8-----8--|-------8--------8-----8--|
|----9-----9--------9-----|----9-----9--------9-----|
|-7-----------------------|-7-----------------------|
|-------------------------|-------------------------|

  +Q     Q     Q     Q      W
|-------------------------|-------------------------|
|-------------------------|-------------------------|
|-------------------------|-------------------------|
|-(6)----------6-----4----|-------------------------|
|-(7)----------7-----6----|-6-----------------------|
|-------------------------|-7-----------------------|
|
| E  E  E  E  E  E  E  E    E  E  E  E  E  E  E  E
|-------------0-----------|-------------0-----------|
|-------------------------|-------------------------|
|-------8--------8-----8--|-------8--------8-----8--|
|----9-----9--------9-----|----9-----9--------9-----|
|-7-----------------------|-7-----------------------|
|-------------------------|-------------------------|

 Q.      +H           E    W
|-------------------------|-------------------------|
|-------------------------|-------------------------|
|-------------------------|-------------------------|
|---------------------4---|-------------------------|
|-4-------(4)---------6---|-2-----------------------|
|-------------------------|-0-----------------------|
|
| E  E  E  E  E  E  E  E    E  E  E  E  E  E  E  E
|-------------0-----------|-------------0-----------|
|-------------------------|-------------------------|
|-------8--------8-----8--|-------8--------8-----8--|
|----9-----9--------9-----|----9-----9--------9-----|
|-7-----------------------|-7-----------------------|
|-------------------------|-0-----------------------|

  H            Q     Q      Q.      H            E
|-------------------------|-------------------------|
|-------------------------|-------------------------|
|-------------------------|-------------------------|
|--------------4----------|-------------------------|
|-2------------------6----|-------------------------|
|-0-----------------------|-7--------------------5--|
|
| E  E  E  E  E  E  E  E    E  E  E  E  E  E  E  E
|-------------0-----------|-------------------------|
|-------------------------|-------------0-----------|
|-------8--------8-----8--|-------8-----8--8-----8--|
|----9-----9--------9-----|----9-----9--------9-----|
|-7-----------------------|-------------------------|
|-------------------------|-------------------------|

  W                         W               
|-------------------------|-------------------------|
|-------------------------|-------------------------|
|-------------------------|-------------------------|
|-------------------------|-------------------------|
|-------------------------|-------------------------|
|-4-----------------------|-------------------------|
|
| E  E  E  E  H             W 
|-------------------------|-------------------------|
|-------------0-----------|-------------------------|
|-------8-----8-----------|-------------------------|
|----9-----9--------------|-------------------------|
|-7-----------------------|-------------------------|
|-------------------------|-------------------------|

Tablature Legend
----------------
 h   - hammer-on
 p   - pull-off

Enjoy.





Comments


Popular Darkest Hour tabs & chords
Convalescence Bass Tabs
Demon(S) Bass Tabs
The Hollow Bass Tabs
With A Thousand Words To Say But One Bass Tabs
An Ethereal Drain 2 Tabs
Convalescence Tabs
Escape Artist Tabs
Fire In The Skies Tabs
No God Tabs
Tranquil Tabs


Song lyrics



↑ Back to top | Tablatures and chords are parodies/interpretations of the original songs. You may use it for private study, scholarship, research or language learning purposes only
© 2014 AZChords.com Contact us | Privacy policy | DMCA | Add/correct tabs | Request tabs | Top 50 tabs