» » »

Darkest Hour, Pathos Tabs (ver.3)

Artists:  A B C D E F G H I J K L M N O P Q R S T U V W X Y Z # 

Pathos Tabs (ver.3)

Darkest Hour Tabs
Rating:
0/5 (0 votes)
Hard to play? Try these video lessons and learn fast.
                -------------------------------------------------------------------------------
                             Pathos - Darkest Hour
-------------------------------------------------------------------------------

Tuning: Standard

 intro
e|--------------------------------------10--8--13--15-----------------13--10-|
B|----------4------3-4-----------4------11--9--13--16----------4-------------|
G|------5-----5----0-5-------5-----5-----------------------5-----5-----------|
D|----5---5-----5----------5---5-----5-------------------5---5-----5---------|
A|--3--------------------3-----------------------------3---------------------|
E|---------------------------------------------------------------------------|

e|---------------------------------------------------------------------------|
B|----------4-----8-6-4------------------------------------------------------|
G|------5-----5---8-7-5------------------------------------------------------|
D|----5---5-----5------------------------------------------------------------|
A|--3------------------------------------------------------------------------|
E|---------------------------------------------------------------------------|
 
guitar one (repeats throughout chorus)
e|---------------------------------------------------------------------------|
B|----------4----------------------------------------------------------------|
G|------5-------------3-------5----------------------------------------------|
D|----5---5---------6-------8------------------------------------------------|
A|--3-------------6-------8--------------------------------------------------|
E|-------------4--------6----------------------------------------------------|

guitar two (repeats a couple times then does the ending part)
e|---------------------------------------------------------------------------|
B|--8-6h8p6p4-3---3-4-6----8-6h8p6p4-3---3-4-6--8-6-4-3----------------------|
G|--------------5----------------------5-------------------------------------|
D|---------------------------------------------------------------------------|
A|---------------------------------------------------------------------------|
E|---------------------------------------------------------------------------|
guitar three (repeats a couple times then does the ending part)
e|-------------------------------------------8--4--3--1----------------------|
B|-------------------------------------------6--6--4--3----------------------|
G|--8-7h8p7-5-3---3-5----8-7h8p7-5-3---3-5-----------------------------------|
D|--------------5--------------------5---------------------------------------|
A|---------------------------------------------------------------------------|
E|---------------------------------------------------------------------------|
guitar one ending verse thing
e|---------------------------------------------------------------------------|
B|--------4-------4-------4--------------------------------------------------|
G|------5-------5-------5-----------------------7-------7-------7-------7----|
D|----5-------5-------5------3h5p3------------8-------8-------8-------8------|
A|--3-------3-------3--------------5h5p3----8-------8-------8-------8--------|
E|----------------------------------------6-------6-------6-------6----------|

e|---------------------------------------------------------------------------|
B|--------4-------4-------4--------------------------------------------------|
G|------5-------5-------5-----------------------7-------7---------5-------5--|repeats a couple times
D|----5-------5-------5------3h5p3------------8-------8---------6-------6----|times maybe you 
A|--3-------3-------3--------------5h5p3----8-------8---------6-------6------|can figure it 
E|----------------------------------------6-------6-------6/4-------4--------|out

e|---------------------------------------------------------------------------|
B|----------4--------------4-------------------------------------------------|
G|------5-----5--------5-----5-------------7--------------5------------------|reapeats till end
D|----5---5----5-----5---5-----5-------8-----8---------6----6----------------|
A|--3------------3-3------------3----8---8-----8-----6---6----6--------------|
E|---------------------------------6-------------6/4------------4------------|

e|---------------------------------------------------------------------------|
B|---------------------------------------------------------------------------|
G|---------------------------------------------------------------------------|
D|---------------------------------------------------------------------------|
A|---------------------------------------------------------------------------|
E|---------------------------------------------------------------------------|


| /  slide up
| \  slide down
| h  hammer-on
| p  pull-off
| ~  vibrato
| +  harmonic
| x  Mute note
===============================================================================
            

comments powered by Disqus
↑ Back to top | Darkest Hour Tabs for Pathos. Lyrics for acoustic guitar and electric guitar. Tablatures and chords are parodies/interpretations of the original songs. You may use it for private study, scholarship, research or language learning purposes only