» » »

How The Beautiful Decay Bass tabs (ver.1)

Artists:  A B C D E F G H I J K L M N O P Q R S T U V W X Y Z # 

How The Beautiful Decay Bass tabs (ver.1)

Darkest Hour
Rating:
0/5 (0 votes)

Tabs too difficult? Try these video lessons and learn fast.
                			     How Beautiful the Decay - Darkest Hour


Tuning: Drop C (CGCF)

Intro
F|--------------------------------|---------------------------------|
C|--------------------------------|---------------------------------|
G|--7-7-7-7-7-787-----------------|--7-7-7-7-7-787------------------|
C|0---------------3-3-3-35-557-77-|0---------------3-3-3-38-887-77--|x3

Verse
F|------------------------|
C|-----------------5-3-232|
G|-----------5-53-5-------|
C|0--REST--5--------------|x2

Repeat all but first note when repeating.
F|-|---------------------------------|
C|-|------------------------5-3-2320-|
G|-|-5-53-3-5-3-353--5-53-5----------|
C|0|---------------5-----------------|x4

Chorus- Only repeat second bar.
F|---|-------------------|
C|---|-------------------|
G|---|-------------------|
C|0-0|---08-8--85-5--50-0|x8

Verse
F|------------------------|
C|-----------------5-3-232|
G|-----------5-53-5-------|
C|0--REST--5--------------|

Repeat all but first note when repeating.
F|-|---------------------------------|
C|-|------------------------5-3-2320-|
G|-|-5-53-3-5-3-353--5-53-5----------|
C|0|---------------5-----------------|x3

Chorus- Only repeat second bar.
F|---|-------------------|
C|---|-------------------|
G|---|-------------------|
C|0-0|---05-5--51-1--10-0|x8

Bridge
F|-----------------------------------------------------------------|
C|-----------------------------------------------------------------|
G|-----------------------------------------------------------------|
C|3333333333333333888888887777777788888888888888888888888877777777-|x5

Verse
F|------------------------|
C|-----------------5-3-232|
G|-----------5-53-5-------|
C|0--REST--5--------------|

Repeat all but first note when repeating.
F|-|---------------------------------|
C|-|------------------------5-3-2320-|
G|-|-5-53-3-5-3-353--5-53-5----------|
C|0|---------------5-----------------|

Chorus- Only repeat second bar. (1's and 0's, Not 10's)
F|---|-------------------|   |-----------------|
C|---|-------------------|   |-----------------|
G|---|-------------------|   |-----------------|
C|0-0|---05-5--51-1--10-0|x7 |---05--1--0------|

Rest for 8 measures then

Outro
F|----------------|
C|----------------|
G|----------------|
C|0-------8---5---|x12

F|----------------------------------------------------------------|
C|----------------------------------------------------------------|
G|----------------------------------------------------------------|
C|0-0-0-0-0-0-0-0-0-0-0-0-0-0-0-0-8-8-8-8-8-8-8-8-5-5-5-5-5-5-5-5-|x8

F|----------------|    |--------------------|
C|----------------|    |--------------------|
G|----------------|    |--------------------|
C|0-------8---5---|x11 |0----8---5---0------|


| /  slide up
| \  slide down
| h  hammer-on
| p  pull-off
| ~  vibrato
| +  harmonic
| x  Mute note
            
Tabs too difficult? Try these video lessons and learn fast.




comments powered by Disqus
↑ Back to top | Tablatures and chords are parodies/interpretations of the original songs. You may use it for private study, scholarship, research or language learning purposes only