» » »

Darkest Hour, How The Beautiful Decay Tabs (ver.1)

Artists:  A B C D E F G H I J K L M N O P Q R S T U V W X Y Z # 

How The Beautiful Decay Tabs (ver.1)

Darkest Hour Tabs
 Rating:
4/5 (4 votes)
How The Beautiful Decay lessons Tabs too difficult? Try these video lessons and learn fast
                
v = vibrato
~ = let note ring out
_ = palm mute note
IMPORTANT:
Dont forget this song is in drop d

Intro (x3):
e------------------------------------------------
b------------------------------------------------
g------------------------------------------------
d--0----------------------6~--1~--3~-------------
a--0---5-5-5-5-5-5-5h6p5--6~--1~--3~-------------
d--0-0--------------------6~--1~--3~-------------
     -

e------------------------------------------------
b------------------------------------------------
g------------------------------------------------
d--0----------------------6~--101010--88---------
a--0---5-5-5-5-5-5-5h6p5--6~--8-8-8---66---------
d--0-0--------------------6~---------------------
     -

Verse(x5):
e------------------------------------------------
b------------------------------------------------
g------------------------------------------------
d--0---------------------------------------------
a--0--3-3p0-----3-3-3p0------3-3p0------8-6-5h6p0
d--0--------0-0---------0-3v-------0-0-----------
            - -         -          - - 

Chorus(x4):
e------------------------------------------------
b------------------------------------------------
g------------------------------------------------
d--00-0--33-3--66-6------------------------------
a--00-0--33-3--66-6------------------------------
d--00-0--33-3--66-6------------------------------

Chorus(cont.) (x4):
e------------------------------------------------
b------------------------------------------------
g------------------------------------------------
d--00-0~--33-3~--66-6~---------------------------
a--00-0~--33-3~--66-6~---------------------------
d--00-0~--33-3~--66-6~---------------------------

Repeat Verse (x5)
Repeat Chorus (x4)
Repeat Chorus2 (x4)

Post-Chorus:
*play each of these notes a bunch of times,
 figure out the rhythm yourself
e------------------------------------------------
b------------------------------------------------
g------------------------------------------------
d------------------------------------------------
a--3--6--5--8--6--------------------------------
d------------------------------------------------

Repeat Verse (x2)
Repeat Chorus (x4)
Repeat Chorus2 (x4)

Breakdown/Outro(play many times):
*the other guitarist goes off on his own,
 but the rhythm is tabbed here
e------------------------------------------------
b------------------------------------------------
g------------------------------------------------
d--0~--3~--6~------------------------------------
a--0~--3~--6~------------------------------------
d--0~--3~--6~------------------------------------

rock out.
            
Submit corrections

comments powered by Disqus
↑ Back to top | Darkest Hour Tabs for How The Beautiful Decay. Lyrics for acoustic guitar and electric guitar. Tablatures and chords are parodies/interpretations of the original songs. You may use it for private study, scholarship, research or language learning purposes only