» » »

Daphne Loves Derby, Stranger You And I Tabs (ver.2)

Artists:  A B C D E F G H I J K L M N O P Q R S T U V W X Y Z # 

Stranger You And I Tabs (ver.2)

Daphne Loves Derby Tabs
Rating:
3/5 (1 vote)
Stranger You And I lessons Tabs too difficult? Try these video lessons and learn fast
                (Intro)
-------------------------------------------------------------------------------
                             "Stranger You And I"-Dapne Loves Derby
-------------------------------------------------------------------------------

Tuning:Standard

*First tab and by ear so yea*

Listen to the song to figure out the strumming pattern

Guitar 1:

e|---------------------------------------------------------------------------|
B|--6--44-3-3-44--3-44-------------------------------------------------------|
G|--3--33-3-3-33--3-33-3-3-33------------------------------------------------|
D|---------------------3-3-33------------------------------------------------|
A|---------------------------------------------------------------------------|
E|---------------------------------------------------------------------------|*Repeat x1*

Guitar 2:

e|---------------------------------------------------------------------------|
B|---------------------------------------------------------------------------|
G|------------------3--------------------------------------------------------|
D|--8---66-5-5-66---5--66--6-6-66--------------------------------------------|
A|--6---66-6-6-66---5--66--6-6-66--------------------------------------------|
E|--8---44-4-4-44---3--44--4-4-44--------------------------------------------|*Repeat x1*


Verse:(same as Guitar 2) *repeat as necessary*

Well hope i helped and i'll keep working on this song!
            
Submit corrections

comments powered by Disqus
↑ Back to top | Daphne Loves Derby Tabs for Stranger You And I. Lyrics for acoustic guitar and electric guitar. Tablatures and chords are parodies/interpretations of the original songs. You may use it for private study, scholarship, research or language learning purposes only