» » »

Daphne Loves Derby, Stranger You And I Tabs (ver.1)

Artists:  A B C D E F G H I J K L M N O P Q R S T U V W X Y Z # 

Stranger You And I Tabs (ver.1)

Daphne Loves Derby Tabs
Rating:
0/5 (0 votes)
Stranger You And I lessons Tabs too difficult? Try these video lessons and learn fast
                (Intro)
-------------------------------------------------------------------------------
                             "Stranger You And I"-Daphne Loves Derby
-------------------------------------------------------------------------------

Tuning:standard *note first tab and it was hard by ear so yea*

Listen to the song for the strumming pattern

Guitar 1:

e|---------------------------------------------------------------------------|
B|-6--44--3-3--44--3--44-----------------------------------------------------|
G|-3--33--3-3--33--3--33--3-3-33---------------------------------------------|
D|------------------------3-3-33---------------------------------------------|
A|---------------------------------------------------------------------------|
E|---------------------------------------------------------------------------|*Repeat x1*

Guitar 2:

e|-----------------------------------------------------------------------------------------|
B|-----------------------------------------------------------------------------------------|
G|10---88-8-8-88---3-----------------------------------------------------------------------|
D|10---88-8-8-88---5-66--6-6-66------------------------------------------------------------|
A|10---88-8-8-88---5-66--6-6-66------------------------------------------------------------|
E|-8---66-6-6-66---3-44--4-4-44----------------------------------------------|*Reapeat x1--|

Well hope i helped!
===============================================================================
            

comments powered by Disqus
↑ Back to top | Daphne Loves Derby Tabs for Stranger You And I. Lyrics for acoustic guitar and electric guitar. Tablatures and chords are parodies/interpretations of the original songs. You may use it for private study, scholarship, research or language learning purposes only