» » »

Danzig, Dead Inside Tabs (ver.2)

Artists:  A B C D E F G H I J K L M N O P Q R S T U V W X Y Z # 

Dead Inside Tabs (ver.2)

Danzig Tabs
Rating:
0/5 (0 votes)
Hard to play? Try these video lessons and learn fast.
                DEAD INSIDE, by Danzig. From the "I Luciferi" album.
The tuning for all songs on that album are: lo to hi, C F Bb Eb G C

main riff:
 c|------------3---------------------------------------|
 G|---------------4--------------------------------3---|
Eb|---------5--------5-------------5------------5------|
Bb|------5--------------5-------5-------------5--------|
 F|---3------------------------------------------------|
 C|--------------------------4-------------3-----------|


Chorus:
 c|------------------------------------------------------------------------|
 G|------------------------------------------------------------------------|
Eb|------------------------------------------------------------------------|
Bb|--10-10-10-10--/13--10-10-10-10--/13--10-10-10-10--/13-----11--11--11---|
 F|--10-10-10-10-------10-10-10-10-------10-10-10-10----------11--11--11---|
 C|---8--8--8--8--------8--8--8--8--------8--8--8--8-----------9---9---9---|

Riff Before Guitar Solo:
 c|----------------------------------------------------------------------------|
 G|----------------------------------------------------------------------------|
Eb|--7--6--7--6--6--5-------------------------7--6--7--6--6--5-----------------|
Bb|--5--5--5--5--6--5---------6-----------6---5--5--5--5--6--5-------6------6--|
 F|--------------4--3--6-6-6-66--6-6-6-6--6---------------4--3--6-6--6--6-6-6--|
 C|--------------------4-4-4-44--4-4-4-4--4---------------------4-4--4--4-4-4--|
                      pm-----+  pm------+                      pm--+   pm--+

End:
 c|---3---|
 G|---4---|
Eb|---5---|
Bb|---5---|
 F|---3---|
 C|--(3)--|
            

comments powered by Disqus
↑ Back to top | Danzig Tabs for Dead Inside. Lyrics for acoustic guitar and electric guitar. Tablatures and chords are parodies/interpretations of the original songs. You may use it for private study, scholarship, research or language learning purposes only