>
 >
Dead Inside

Dead Inside Guitar Tabs

Danzig - Dead Inside chords, tabs, tablatures, lyrics

Guitar lessons | Add/correct | Request | Top 50 tabs Artists:  A B C D E F G H I J K L M N O P Q R S T U V W X Y Z 0-9

Dead Inside Guitar Tabs – Danzig

CD, Sheet music, Poster

Do you like Dead Inside? Share with your friends now
TabsTabs v2Tabs v3
DEAD INSIDE - half-step down
===========
transcription: Dab

   main riff:
Eb|----------------0----------------|---------------------------------|
Bb|--------------------1------------|----------------------------0----|
Gb|------------2-----------2--------|---------2--------------2--------|
Db|--------2-------------------2----|-----2--------------2------------|
Ab|-0-------------------------------|---------------------------------|
Eb|---------------------------------|-1-----------0-------------------|

   chorus:
Eb|---------5^AH--------------5^AH--|---------5^AH--------------------|
Bb|---------5^AH--------------5^AH--|---------5^AH--------------------|
Gb|---------------------------------|---------------------------------|
Db|-7-7-7-7-----------7-7-7-7-------|-7-7-7-7-----------8---8---8-----|
Ab|-7-7-7-7-----------7-7-7-7-------|-7-7-7-7-----------8---8---8-----|
Eb|-5-5-5-5-----------5-5-5-5-------|-5-5-5-5-----------6---6---6-----|
    pm --->           pm --->

   break:
Eb|---------------------------------|---------------------------------|
Bb|---------------------------------|---------------------------------|
Gb|---------------------------------|---------------------------------|
Db|-9-8-9-8-------------------------|-9-8-9-8-------------------------|
Ab|-7-6-7-6-8--7--------3-------3---|-7-6-7-6-8--7---------3--------3-|
Eb|---------6--5---0000-1--0000-1---|---------6--5---0--1--1--0--1--1-|
                   pm->    pm->                      pm pm    pm pm

   solo:
Eb|---------------------------------|------------------------10~------|
Bb|---------------------------------|----------------------8----------|
Gb|---------------------------------|---5-9~---9/10/9-9~--------------|
Db|------------------------/7~------|-7-------------------------------|
Ab|-------7-8-7-5-3-5-3-2-----------|---------------------------------|
Eb|-/5~-----------------------------|---------------------------------|

Eb|-8-7-8-10-10^-10-8-7-------------|---------------------------------|
Bb|---------------------10~---------|-20^---20-20-20~-----------------|
Gb|---------------------------------|-------(hold the-bend------------|
Db|---------------------------------|--------on these 3 notes)--------|
Ab|---------------------------------|---------------------------------|
Eb|---------------------------------|---------------------------------|

Eb|-20-19----19-20-19-17------------|---------------------------------|
Bb|-------22-------------18-17-18---|-17-13-12~---13-12h13p13-10~-----|
Gb|---------------------------------|---------------------------------|
Db|---------------------------------|---------------------------------|
Ab|---------------------------------|---------------------------------|
Eb|---------------------------------|---------------------------------|

Eb|----12-15-20-15-17~--------------|-20-19----19-19----20-19-20-22^--|
Bb|-13------------------------------|-------22-------22---------------|
Gb|---------------------------------|---------------------------------|
Db|---------------------------------|---------------------------------|
Ab|---------------------------------|---------------------------------|
Eb|---------------------------------|---------------------------------|

Eb|-20-19-16h17p16-17~-----12/13-12~|---------------------------------|
Bb|---------------------------------|---------------------------------|
Gb|---------------------------------|---------------------------------|
Db|---------------------------------|---------------------------------|
Ab|---------------------------------|---------------------------------|
Eb|---------------------------------|---------------------------------|

-songflow-
 main   (4x)
 main   (20x)
 chorus (4x)
 main   (8x) w/distortion
 chorus (4x)
 break  (2x)
 main   (8x) w/solo
 chorus (8x)
 A





Comments


Popular Danzig tabs & chords
Dirty Black Summer Bass Tabs
Mother Bass Tabs
Anything 1 Tabs
Bringer Of Death Tabs
Dominion Tabs
I'm The One Tabs
Left Hand Black Tabs
She Rides Tabs
Snakes Of Christ 1 Tabs
Unspeakable Tabs


Song lyrics



↑ Back to top | Tablatures and chords are parodies/interpretations of the original songs. You may use it for private study, scholarship, research or language learning purposes only
© 2014 AZChords.com Contact us | Privacy policy | DMCA | Add/correct tabs | Request tabs | Top 50 tabs