» » »

Am I Demon? Bass tabs (ver.2)

Artists:  A B C D E F G H I J K L M N O P Q R S T U V W X Y Z # 

Am I Demon? Bass tabs (ver.2)

Danzig
Rating:
0/5 (0 votes)

Hard to play? Try these video lessons and learn fast.
                Standard Tuning
Main Riff
G------------------------------|
D--------------------------5---|
A-5-7777-5-7777-5-7777-777-----|
E------------------------------|
Chorus
G-------------------------------|
D-------------------------------|
A-3~----------------------------|
E----5~-------------------------|
Riff 2
G-------------------------------|
D-------------------------------|
A-----------------------5-------|
E-5-7777-5-7777-5-7777----5-----|

Easy to play but also tiring.
            
Hard to play? Try these video lessons and learn fast. | Correct




comments powered by Disqus
↑ Back to top | Tablatures and chords are parodies/interpretations of the original songs. You may use it for private study, scholarship, research or language learning purposes only